Song name
# A B C D E F G H I J K L M N O P Q R S T U V W X Y Z

Alt-j - Breezeblocks tab

Breezeblocks - Alt-J (∆)
Tabbed by: Andrew Schembri

It's a really cool song to play.

X means you should hit the strings with your thumb and make the pickup pop.

Verse 1:

She may contain

e|---------------------------------------------------------------|
B|-10------13--------15--------15--------------------------------|
G|---------------------------------------------------------------|
D|---------------------------------------------------------------|
A|-8--X--8/12--X--12-----X--12-----------------------------------|
D|-------------------12--------12------0-0-0-0-------------------|

  Fmaj       Amin         Dmin        Dmin

Verse 2: Muscle to muscle

e|---------------------------------------------------------------|
B|---------------------------------------------------------------|
G|---------------------------------------------------------------|
D|---------------------------------------------------------------|
A|--8-8-8-8-8-8-8-8-8-12-12-12-12-12-12-12-12--------------------|
D|---------------------------------------------------------------|

e|---------------------------------------------------------------|
B|---------------------------------------------------------------|
G|------------------------[Last time ie before verse]------------|
D|---------------------------------------------------------------|
A|-5-5-5-5-5-5-5-7-(8-8-8-8-8-8-8-8)-----[-8-----8-]-------------|
D|---------------------------------------------------------------|


Last verse.


e|---------------------------------------------------------------|
B|-10------13--------15------------------------------------------|
G|---------------------------------------------------------------|
D|---------------------------------------------------------------|
A|-8--X--8/12--X--12------------17--/--15------------------------|
D|-------------------12---------17--/--15------------------------|
 
Outro: please dont go

e|---------------------------------------------------------------|
B|---------------------------------------------------------------|
G|---------------------------------------------------------------|
D|---------------------------------------------------------------|
A|-----------------------8-12-12-12-8-12-12-12-12----------------|
D|--12-12-12-12-12-12-12-----------------------------------------|

     Dm                  Fmaj

e|---------------------------------------------------------------|
B|---------------------------------------------------------------|
G|---------------------------------------------------------------|
D|-10-101010101010101-8-8-8-8-8-8-8-8----------------------------|
A|--8-8-8-8-8-8-8-8-8-8-8-8-8-8-8-8-8----------------------------|
D|---------------------------------------------------------------|

           Fmaj           Fsus

e|---------------------------------------------------------------|
B|---------------------------------------------------------------|
G|---------------------------------------------------------------|
D|---------------------------------------------------------------|
A|--8-8-8-8-8-8-8-8-8-12-12-12-12-12-12-12-12--------------------|
D|---------------------------------------------------------------|

    Fmaj                 Amaj

e|---------------------------------------------------------------|
B|---------------------------------------------------------------|
G|---------------------------------------------------------------|
D|---------------------------------------------------------------|
A|-5-5-5-5-5-5-5-7-8-8-8-8-8-8-8-8-------------------------------|
D|---------------------------------------------------------------|
   Dmin              Fmaj
Tap to rate this tab
 
# A B C D E F G H I J K L M N O P Q R S T U V W X Y Z