Song name
# A B C D E F G H I J K L M N O P Q R S T U V W X Y Z

Alt-j - Taro tab

Taro: Alt-J 
Tabbed by: Frazer Legge
Tunning: Drop D
Corrections: f.legge10@gmail.com

This is my first tab. Thought I'd give it a bash.
Enjoy.


INTRO: 
e|------14-------10-----2-----3--------------------------|
B|---12-------10------3-----2-------0-----0-----3-----2--|
G|14-------11-------4-----2-------0-----0-----4-----2----|
D|------------------------------2-----0------------------|
A|------------------------------------------2-----0------|
D|-------------------------------------------------------|

Riff_1: 
  Dm    C         Gm     F
e|---------------------------------|    OR    e|---------------------------------|
B|---6------5----------------------|          B|---6------5----------------------|
G|--7-----5---------0-3----0-2-----|          G|--7-----5-----------3------2-----|
D|---------------------------------|          D|------------------5------5-------|
A|5-----3--------------------------|          A|5-----3--------------------------| 
D|----------------5------3---------|          D|----------------5------3---------|

Riff_2:
e|---------------------------------|
B|--------------------3-------1----|
G|----0-------0-----3---3---2---2--|
D|--1---1---1---1-5-------3--------|
A|3-------1------------------------|
D|---------------------------------|

Riff_3:
e|----13-13--13-13---13--13---13-13-13-13-------|
B|10--------------------------------------10-10-|
G|----------------------------------------------|
D|----------------------------------------------|
A|----------------------------------------------|
D|----------------------------------------------|

Riff_4:
E|----------------------------------|
B|----------------------------------|
G|----------------------------------|
D|----------------------------------|
A|----------------------------------|
D|--0--0-3-3/12-12-12-3-5-5-3-7-3-3-|



Intro Riff


Verse_1:
Riff_1*3

Dm C  Gm   F                Dm                    C 
Indochina, Capa jumps Jeep, two feet creep up the road
Gm        F         Dm              C 
To photo, to record meat lumps and war
Gm            F
They advance as does his chance

*A capela Bridge*
Oh-oh-oh-


Verse_2:
Riff_1*3
Riff_2*1
                       Dm C 
very yellow white flash
Gm        F                  Dm                           C
A violent wrench grips mass, rips light, tears limbs like rags
Gm             F
Burst so high finally Capa lands
Dm               C   Gm             F
Mine is a watery pit Painless with immense distance

Riff_2
From medic from colleague, friend, enemy, foe
Him five yards from his leg, from you Taro


Chorus:
Riff_1*22

      Riff_1*2
(Taro)oooooo

*A capela Bridge*
Do not spray into eyes, I have sprayed you into my eyes

Guitar1: Riff_1*2
Guitar2: Riff_3*2


Verse_3:
Riff_1*3
Riff_2*1

  Dm C Gm  F                 Dm                          C            
3:10   pm, Capa pends death, quivers, last rattles, last chokes
    Gm                F              Dm                         C
All colours and cares glaze to grey, shrivelled and stricken to dots,
Gm                        F              
Left hand grasps what the body grasps not

Riff_2
Ohooooo Ohooooooo

Verse_4:
Roff_1*3
Riff_2*1

     Dm  C  Gm  F     Dm                 C     Gm                  F
           3.1415, alive no longer my amour, faded for home May of '54
      Dm                C    Gm               F
Doors open like arms my love, Painless with a great closeness

Riff_2 
To Capa, to Capa, Capa dark after nothing, re-united with his leg
And with you


Chorus_2:
Riff_1*4
Riff_1*4

Riff_1*4
Tarooooooo

Riff_1*4
Tarooooooo


*A cappela Brige*
Do not spray into eyes, I have sprayed you into my eyes
Hey Taro


Intrumental:
(Riff_1 + Riff_3)*6

Riff_4

(Riff_1 + Riff_3) Until Finish
Tap to rate this tab
 
# A B C D E F G H I J K L M N O P Q R S T U V W X Y Z