Song name
# A B C D E F G H I J K L M N O P Q R S T U V W X Y Z

Alter Bridge - Broken Wings tab

Tuning - Guitar 1: capo on the first.
                 Guitar 2: no capo

Tabbed by:
Email:


Guitar 1: from the capo back
e|---------------------------------------------------------------------------|
B|--------------------------------------4p2--------------------------------- |
G|-------------3----------------3------------3---------------------3-------- |
D|---------3---------3--------------3-----------3--------------3----------- -|
A|----1------------------1---------------------------------1---------------- |
E|---------------------------------------------------------------------------|

e|------------------------------------------------------------------------------|
B|-------------------4p2-------------------------------------------2------------|
G|----------3-------------3---------------------3----------3----------3---------|
D|----3---------3-------------3--------------3-------3----------3---------3-----|
A|-------1----------------------------------------------------------------------|
E|---------------------------------------2---------------2------------------ ---|

e|------------------------------------------------------------------------------|
B|----------------------------2------------------------------2------------------|
G|--------3-------------3-------3---------------3-------3--------3--------------|
D|----3-------3-----------3--------3--------3------3------ 3---------3----------|
A|------------------------------------------------------------------------------|
E|-2---------------2---------------------0-----------0--------------------------|

e|------------------------------------------------------------------------------|
B|--------------------2-----------------------------------------2---------------|
G|-------3-----------------3------------------3----------3----------3-----------|
D|----3-----3------------------3----------3------3----------3-------------------|
A|------------------------------------0-----------------------------------------|
E|-0------------0-------------------------------------2-------------------------|


Guitar 2: this is your lead guitar and no capo
e|----------------------------------------------------------|
B|----4----------6p4-----------4-----6---6/--8--8/--9---8v--|
G|---------5--------------5v---------5---5/--8--8---8---8v--|
D|----------------------------------------------------------|
A|----------------------------------------------------------|
E|----------------------------------------------------------|

e|-8/----6/---4/--3/-------------------------------------------------------------------|
B|-9/----8/---6/--4/-------------------------------------------------------------------|
G|-------------------------------------------------------------------------------------|
D|-------------------------------------------------------------------------------------|
A|-------------------------------------------------------------------------------------|
E|-------------------------------------------------------------------------------------|
repeat this 3 times the start the other part again


the cords they play later on in the song are you will have too pick out when they change
e|----3-------------------------------------------8------------------4--------------|
B|----4---------------------8---------------------9------------------4--------------|
G|----5---------------------8---------------------10------------------5-------------|
D|----5---------------------8---------------------10------------------6-------------|
A|----3---------------------6---------------------8-------------------6-------------|
E|--------------------------6---------------------8-------------------4-------------|


| /  slide up
| \  slide down
| h  hammer-on
| p  pull-off
| v vibrato
| +  harmonic
| x  Mute note
Tap to rate this tab
# A B C D E F G H I J K L M N O P Q R S T U V W X Y Z