Song name
# A B C D E F G H I J K L M N O P Q R S T U V W X Y Z

Alter Bridge - Ties That Bind tab

 
I watched the Mark Tremonti sound and story where he plays it slow it makes it a 
lot easier to hear what hes playing 
plus you can see him doing it 


Tuning: DAFCGD
 _________________
|Key:             |
| x=rake          |
| B=Full bend     |
| b[1/4]=1/4 bend |
| b[1/2]=1/2 bend |
| p=pull off      |
| h=hammer on     |
| ~=let ring      |
| /=slide up      |
| \=Slide down    |
|_________________|

|------------------------------------|
|-------------------x-5--------------|
|----7B--7Br-p5-7~~-x-5---7B-p5------|
|---x---x-----------x----x------7-7~~|
|--x---x----------------x------------|
|------------------------------------|

|------------------------------------|
|------------------------------------|
|-------5~~----------------------5---|
|-7-5h7-----7p5-5-7p5--5h7-7p5-------|
|--------------7-----7--------7------|
|------------------------------------|

|------------------|
|------------------|
|-7B-p5-5[1/4b]----|
|------7-------7~~~|
|------------------|
|------------------|

|-5-------5-----------------------|
|--5-8---5------------------------|
|-----7B----7[1/2b]-p5--7--5---5~~|
|---------------------7--7--7p5---|
|---------------------------------|
|---------------------------------|

|---------------------------|
|-131313131313131313/151515-|
|-X-X-X-X-X-X-X-X-X--X-X-X--|
|-101010101010101010/121212-|
|---------------------------|
|---------------------------|

|-------------------------------------------------|
|-121212121212121212121212121212121212121212/13\8-|
|-X-X-X-X-X-X-X-X-X-X-X-X-X-X-X-X-X-X-X-X-X--X--X-|
|-9-9-9-9-9-9-9-9-9-9-9-9-9-9-9-9-9-9-9-9-9-/10\5-|
|-------------------------------------------------|
|-------------------------------------------------|

|-------------------------------------|
|--------------------8B---6B-5/6------|
|-5-7-7[1/2b]-p5------------------5\4-|
|----------------7-5----5---5---5-----|
|-------------------------------------|
|-------------------------------------|

|----8-12p8------7-10p7------12-15p12--------12-17p12-17p12-----15B|
|--10------10---8------8---13--------12---13---------------13p12---|
|-9------------7---------12-------------12-------------------------|
|------------------------------------------------------------------|
|------------------------------------------------------------------|
|------------------------------------------------------------------|
Tap to rate this tab
# A B C D E F G H I J K L M N O P Q R S T U V W X Y Z