Song name
# A B C D E F G H I J K L M N O P Q R S T U V W X Y Z

Alter Bridge - Fallout tab

Fallout
Album: AB III

Intro

Eb|---0h1p0------------------------------------0h1p0-----------------------|
Bb|----------3--1h3p1-------------1------1------------3--1h3p1-------------|
Gb|--------------------2--0h2-------2---------------------------2----------|
Db|---0---------0---------0----0------0--------0---------------------------|
Ab|------------------------------------------------------------------------|
Db|------------------------------------------------------------------------|

Eb|-----------------------------------------------------------0------------|
Bb|------------1------1---------------------------------3------------------|
Gb|---0h2--------2---------0h2p0----------------0h2------------------------|
Db|---0-----0------0--------------2---0h2p0--------------------------------|
Ab|------------------------3----------3------3------3------3---------------|
Db|------------------------------------------------------------------------|

Eb|--------------0---------------------------------------------------------|
Bb|--------3----------------3~---------------------------------------------|
Gb|--2---------------2-----------------------------------------------------|
Db|------------------------------------------------------------------------|
Ab|--3--3-----3------3---3-------------------------------------------------|
Db|------------------------------------------------------------------------|
Tap to rate this tab
 
# A B C D E F G H I J K L M N O P Q R S T U V W X Y Z