Alter Bridge - Fallout tab

-------------------------------------------------------------------------------
			     Fallout - Alter Bridge - Full Song
-------------------------------------------------------------------------------
Tabbed by: Angrypoonani
Email: angrypoonani@gmail

Tuning: Drop C#

Intro/Verse:
This or some variation of this is used in the verses and pre-chorus'
--------------------------------------------------------|
-5h6p5------------------------5h6p5---------------------|
-------7-5h7-----2h4--2-------------7-5h7-----2h4--2-0~-|
-------------0----------0h5h7-------------0----------5~-|
--------------------------------------------------------|
-0-------------0----0---0-----0-------------0----0---0--|

-----------------------------0-----------0--------------|
-----------------------3-------------5-----------5------|
-0h2p0-------------------0-----5------5----5-------5----|
-------3-0h2---2-3---3-----3----(3)---------(3)---------|
-3-----------3-----3-----------3~~~3---3---3~~~3-----7*-|
-----------------------------------------------------7*-|

Chorus:
The second time around Tremonti uses octaves using the 2nd & 4th strings)
but they are based around the same notes
--8-----3--3-----0-----3--|2nd Chorus|
--11----6--5-----3-----3--|end with--|
--10----5--5-----2-----5--|----------|
--8-----3--3-----0-----5--|-x1--0----|
--8-----3--3-----0-----3--|-x1--0----|
--8-----3--3-----0--------|-x1--0----|

Bridge/Interlude:
It starts off with a picking pattern that is simply the 6th string following
these notes with the 4th & 5th open, then progresses into this:
----------------------------------------------------|
----------------------------------------------------|
----------------------------------------------------|
--8---3---5---0---1---5---8-7-5--0-1-0--------------|
--8---3---5---0---1---5---8-7-5--0-1-0--------------|
--8---3---5---0---1---5---8-7-5--0-1-0--------------|

The leads aren't terrible ridiculous, I'm working on them and once
they are all done I will add them to this


************************************

| /   slide up
| \   slide down
| h   hammer-on
| p   pull-off
| ~   hold note
| *   harmonic
| x   Mute note
| b   Bend
| pb  Pre-bend
| br  Bend release
| pbr Pre-bend release
| brb Bend release bend

************************************
Tap to rate this tab
 
# A B C D E F G H I J K L M N O P Q R S T U V W X Y Z