Song name
# A B C D E F G H I J K L M N O P Q R S T U V W X Y Z

Alter Bridge - Save Me tab

Intro:
|---------------------------14h16-14--------------------------------------------|
|------------------14\16-14-14------14\16-14------------------------------------|
|---------13\15-13--------------------------13\15-13----------------------------|
|----11-13-------------------------------------------11\13-11----------13-11----|
|-13----------------------------------------------------------11\13-11------13--|
|-------------------------------------------------------------------------------|
*Missing stuff in the intro

Chords:  F#; Ebm7; G#m; C#7

e|-------2-----------------4-----------------------------------------------|
B|-------2-------7h9-7-----4-------6h7-6-----------------------------------|
G|-------3-----------------4-----------------------------------------------|
D|-------4------8----------6------6----------------------------------------|
A|-------4-----6-----------6-----4-----------------------------------------|
E|----2-----^-----------4-----^--------------------------------------------|


Notes : "^" in these tabs means to tap
Strumming : first play the single note, then strum upward from high to low

*This is how the song goes until he starts the verse... when he starts singing, instead 
plucking the Ebm7 and C#7 just strum like you would play the other chords... Listen to 
song if you dont understand


*Feel Free to Edit tab
Tap to rate this tab
# A B C D E F G H I J K L M N O P Q R S T U V W X Y Z