Song name
# A B C D E F G H I J K L M N O P Q R S T U V W X Y Z

Aly And Aj - Rush tab

OK heres the whole song by aly and aj. Its ot exxxactly like the original song but it 
sound like it. i think it sounds better sung =] hope use like.

   Am              D              Em             Am
e|------0------------2---------------0--------------0----------------------|
B|----1---1--------3---2---x2------0---0--x2------1---1---x4---------------|
G|--2--------x8--2---------------0--------------2--------------------------|
D|-------------------------------------------------------------------------|
A|-------------------------------------------------------------------------|
E|-------------------------------------------------------------------------|

Into your head into your mind
out of your soul race through your veins
you cant escape you cant escape

into your life into your dreams
out of the dark sunlight again
you can exclaim you cant exclaim

Bridge
(this part is strummed)
Am: 002210, A5: 002200

        Am              A5
Can you feel it can you feel it
Am                        A5
rushing through your head rushing through your head
        Am              A5(one strum)
can you feel it can you feel it

Chorus:
(Am: 002210, F:003210, C: 032010 G; 320033)

Am              F                     C
Dont let nobody tell you your life is over
         G                   Am
be every colour that you are
         F                         C
into the rush now you dont have to no how
      G              Am(one strum)
no it all before you try

Verse 2
   Am              D              Em             Am
e|------0------------2---------------0--------------0----------------------|
B|----1---1--------3---2---x2------0---0--x2------1---1---x4---------------|
G|--2--------x8--2---------------0--------------2--------------------------|
D|-------------------------------------------------------------------------|
A|-------------------------------------------------------------------------|
E|-------------------------------------------------------------------------|

Pulling you in spinnin you round
lifting your feet right off the ground
you cant believe its happening now

Bridge
(this part is strummed)
Am: 002210, A5: 002200

        Am              A5
Can you feel it can you feel it
Am                        A5
rushing through your head rushing through your head
        Am              A5(one strum)
can you feel it can you feel it

Chorus:
(Am: 002210, F:003210, C: 032010 G; 320033)

Am              F                     C
Dont let nobody tell you your life is over
         G                   Am
be every colour that you are
         F                         C
into the rush now you dont have to no how
      G              Am
no it all before you try

D              F
It takes us to another place
Em             F
imagaine everything you can
D                    F
all the colours they start to blend
G                         F
your system overloads again

e|---3------3------3-------------------------------------------------------|
B|-----1------1------1-----------------------------------------------------|
G|-------2------2----------------------------------------------------------|
D|-------------------------------------------------------------------------|
A|-------------------------------------------------------------------------|
E|-------------------------------------------------------------------------|

Can you feel it, can you feel it...


Chorus:
(Am: 002210, F:003210, C: 032010 G; 320033)

Am              F                     C
Dont let nobody tell you your life is over
         G                   Am
be every colour that you are
         F                         C
into the rush now you dont have to no how
      G              Am (one strum)
no it all before you try

thats it! there ya go. hope ya like it

xoxox x_ashleigHH
Tap to rate this tab
 
# A B C D E F G H I J K L M N O P Q R S T U V W X Y Z