Guitaretab - guitar tabs
Song name
# A B C D E F G H I J K L M N O P Q R S T U V W X Y Z
Home / A / Amen / Ck Killer tab

Amen - Ck Killer tab

1. CK KILLER

tabbed by John Halfpenny (jhalfpenny@excite.com)

Intro

e ----------------------------------------------------------|
B ----------------------------------------------------------|
G ----------------------------------------------------------|
D 0-------0-------0-------0-------0-------0-------0-------0-|
A 0-------0-------0-------0-------0-------0-------0-------0-|
D 0-------0-------0-------0-------0-------0-------0-------0-|

guitar 1
e -----------------------------------|
B -----------------------------------|
G -----------------------------------|
D 0-------------------------------0--|
A 0-------------------------------0--|
D 0-------------------------------0--|

guitar 2
e -----------------------------------|
B -----------------------------------|
G -----------------------------------|
D -----------------------------------|repeat in time with song
A -----------------6-6-6-3-3-3-8-8-8-|
D 0-0-0-6-6-6-3-3-3------------------|

both guitars                                             #= 10th fret
e --------------------------------------------------------------------|
B --------------------------------------------------------------------|
G ------------------8-8-8-5-5-#-#-#-------------------8-8-8-5-5-#-#---|
D 0-0-0-6-6-6-3-3-3-8-8-8-5-5-#-#-#-0-0-0-6-6-6-3-3-3-8-8-8-5-5-#-#---|
A 0-0-0-6-6-6-3-3-3-6-6-6-3-3-8-8-8-0-0-0-6-6-6-3-3-3-6-6-6-3-3-8-8-8-|
D 0-0-0-6-6-6-3-3-3-----------------0-0-0-6-6-6-3-3-3-----------------|
[ Tab from: http://www.guitaretab.com/a/amen/73109.html ]
guitar3
e ----------------------------------------------------------------|
B ----------------------------------------------------------------|
G 7-6---7-6---7-6---7-6---7-6-7-6-7-6---7-6---7-6---7-6---7-6-7-6-|
D ----------------------------------------------------------------|
A ----------------------------------------------------------------|
D ----------------------------------------------------------------|

Verse
e ---------------------------------------------------------------|
B ---------------------------------------------------------------|
G --------------------------------5-5-5-8-8-8-7-7-7-#-#-#-9-9-12-|
D x-x-x-x-x-x-x-x-x-x-x-x-x-x-x-x-5-5-5-8-8-8-7-7-7-#-#-#-9-9-12-|
A x-x-x-x-x-x-x-x-x-x-x-x-x-x-x-x-3-3-3-6-6-6-5-5-5-8-8-8-7-7-10-|
D x-x-x-x-x-x-x-x-x-x-x-x-x-x-x-x--------------------------------|

e --------------------------------------------------------------|
B --------------------------------------------------------------|
G --------------------------------3-2-0-3-2-0-3-2-0-3-2-0-3-2-0-|
D x-x-x-x-x-x-x-x-x-x-x-x-x-x-x-x-3-2-0-3-2-0-3-2-0-3-2-0-3-2-0-|
A x-x-x-x-x-x-x-x-x-x-x-x-x-x-x-x-------------------------------|
D x-x-x-x-x-x-x-x-x-x-x-x-x-x-x-x-------------------------------|

e ----------------------------------------------------------------|
B ----------------------------------------------------------------|
G --------------------------------5-5-5-8-8-8-7-7-7-#-#-#-9-9-12--|
D x-x-x-x-x-x-x-x-x-x-x-x-x-x-x-x-5-5-5-8-8-8-7-7-7-#-#-#-9-9-12--|
A x-x-x-x-x-x-x-x-x-x-x-x-x-x-x-x-3-3-3-6-6-6-5-5-5-8-8-8-7-7-10--|
D x-x-x-x-x-x-x-x-x-x-x-x-x-x-x-x---------------------------------|

Chorus
e -------------------------------------------------------------|
B -------------------------------------------------------------|
G -------------------------------------------------------------|
D 0----0-0-0---0-3----3-3-3---3-6----6-6-6---6-8-8-8-8-#-#-#---|
A 0----0-0-0---0-3----3-3-3---3-6----6-6-6---6-8-8-8-8-#-#-#---|
D 0----0-0-0---0-3----3-3-3---3-6----6-6-6---6-8-8-8-8-#-#-#---|

e --------------------------------|
B --------------------------------|
G --------------------------------|
D 0----0-0-0---0-3----3-3-3---3-6-|
A 0----0-0-0---0-3----3-3-3---3-6-|
D 0----0-0-0---0-3----3-3-3---3-6-|
Related for Ck Killer tab
Advertisement will be closed in 10 seconds