Song name
# A B C D E F G H I J K L M N O P Q R S T U V W X Y Z

American Standards - Raised By Wolves tab

-------------------------------------------------------------------------------
                             Raised By Wolves - AMERICAN STANDARDS
-------------------------------------------------------------------------------
Tabbed by: Brennen Westermeyer
E-mail: MotionManagementAZ@Gmail.com

Tuning: CGCFAD


Intro (repeat twice)

Guitar 1 & 2

d|------------------|------------------|------------------|------------------|
a|------------------|------------------|------------------|------------------|
f|------------------|------------------|------------------|------------------|
c|--6--1-1-1-1-1-1--|--6--1-1-1-1/2-2--|--6--1-1-1-1-1-1--|--6--1-1-1-1/2-2--|
g|--6--1-1-1-1-1-1--|--6--1-1-1-1/2-2--|--6--1-1-1-1-1-1--|--6--1-1-1-1/2-2--|
C|--6--1-1-1-1-1-1--|--6--1-1-1-1/2-2--|--6--1-1-1-1-1-1--|--6--1-1-1-1/2-2--|



Verse (blast beats) 

Guitar 1 & 2

d|------------------|------------------|------------------|------------------|
a|------------------|------------------|------------------|------------------|
f|------------------|------------------|------------------|------------------|
c|--6--1-1-1-1-1-1--|--6--1-1-1-1/2-2--|--6--1-1-1-1-1-1--|--6--1-1-1-1/2-2--|
g|--6--1-1-1-1-1-1--|--6--1-1-1-1/2-2--|--6--1-1-1-1-1-1--|--6--1-1-1-1/2-2--|
C|--6--1-1-1-1-1-1--|--6--1-1-1-1/2-2--|--6--1-1-1-1-1-1--|--6--1-1-1-1/2-2--|



Verse Guitar 1

d|--------------|---------------|--------------|--------------|----|
a|--------------|---------------|--------------|--------------|----|
f|--------------|---------------|--------------|--------------|----|
c|--1--4--2--5--|-1--4--2--5-8--|--1--4--2--5--|-1--4--2--5---|-8--|
g|--1--4--2--5--|-1--4--2--5-8--|--1--4--2--5--|-1--4--2--5---|-8--|
C|--1--4--2--5--|-1--4--2--5-8--|--1--4--2--5--|-1--4--2--5---|-8--|



Verse guitar 2

d|--------------|---------------|--------------|--------------|----|
a|--------------|---------------|--------------|--------------|----|
f|--8--11-9--12-|-8--11-9--12---|--8--11-9--12-|-8--11-9--12--|-15-|
c|--x--x--x---x-|-x--x--x---x---|--x--x--x---x-|-x--x--x---x--|--x-|
g|--6--9--7--10-|-6--9--7--10---|--6--9--7--10-|-6--9--7--10--|-13-|
C|--------------|---------------|--------------|--------------|----|



Strummging Guitar 1.............................Full on Strumming

d|-----------------------|----------------------|-----------------------|----------------------|
a|-----------------------|----------------------|-----------------------|----------------------|
f|--7--------------------|--7------8----11------|--7------8----4--------|--7------8----11------|
c|--x--------------------|--x------x----x-------|--x------x----x--------|--x------x----x-------|
g|--5--------------------|--5------6----9-------|--5------6----2--------|--5------6----9-------|
C|-----------------------|----------------------|-----------------------|----------------------|



Strumming Guitar 2...............................Full on strumming

d|-----------------------|----------------------|-----------------------|----------------------|
a|-----------------------|----------------------|-----------------------|----------------------|
f|-----------------------|----------------------|-----------------------|----------------------|
c|--8------9----5--------|--8------9----12------|--8------9----5--------|--8------9----12------|
g|--8------9----5--------|--8------9----12------|--8------9----5--------|--8------9----12------|
C|--8------9----5--------|--8------9----12------|--8------9----5--------|--8------9----12------|




Guitar 1 lead (over guitar 2 strumming)

d|-----------------------|----------------------|-----------------------|----------------------|
a|-----------------------|----------------------|-----------------------|----------------------|
f|--11---10--------------|--11---10-------------|--11---10--------------|---------11----14-----|
c|----------12-----------|----------12----------|----------12-----------|---------9-----12-----|
g|--------------8h9------|-------------8h9------|--------------8h9------|---------9-----12-----|
C|-----------------------|----------------------|-----------------------|---------9-----12-----|



Bridge Guitar 1.

d|--------------------|----------------------|
a|-------------5/6/5--|----------------------|
f|-------------4/5/4--|----------------------|
c|--3-4--------3/4/3--|--1-2-----------------|
g|--3-4---------------|--1-2--------1--------|
C|--3-4--0000---------|--1-2--0000----2-1-0--|



Bridge guitar 2

d|--------------------|----------------------|
a|--------------------|----------------------|
f|--------------------|----------------------|
c|--3-4---------------|--1-2-----------------|
g|--3-4---------------|--1-2-----------------|
C|--3-4--0000---------|--1-2--0000-----------|



Guitar 2 (alone)

d|--------------|---------------|--------------|--------------|----|
a|--------------|---------------|--------------|--------------|----|
f|--8--11-9--12-|-8--11-9--12---|--8--11-9--12-|-8--11-9--12--|-15-|
c|--x--x--x---x-|-x--x--x---x---|--x--x--x---x-|-x--x--x---x--|--x-|
g|--6--9--7--10-|-6--9--7--10---|--6--9--7--10-|-6--9--7--10--|-13-|
C|--------------|---------------|--------------|--------------|----|



Outro Guitar 1

d|--------------|---------------|--------------|--------------|----|
a|--------------|---------------|--------------|--------------|----|
f|--------------|---------------|--------------|--------------|----|
c|--1--4--2--5--|-1--4--2--5-8--|--1--4--2--5--|-1--4--2--5---|-8--|
g|--1--4--2--5--|-1--4--2--5-8--|--1--4--2--5--|-1--4--2--5---|-8--|
C|--1--4--2--5--|-1--4--2--5-8--|--1--4--2--5--|-1--4--2--5---|-8--|



Outro guitar 2

d|--------------|---------------|--------------|--------------|----|
a|--------------|---------------|--------------|--------------|----|
f|--8--11-9--12-|-8--11-9--12---|--8--11-9--12-|-8--11-9--12--|-15-|
c|--x--x--x---x-|-x--x--x---x---|--x--x--x---x-|-x--x--x---x--|--x-|
g|--6--9--7--10-|-6--9--7--10---|--6--9--7--10-|-6--9--7--10--|-13-|
C|--------------|---------------|--------------|--------------|----|

Check out AMERICAN STANDARDS!

www.facebook.com/AmericanStandards
http://AmericanStndrds.bandcamp.com
www.twitter.com/AmericanStndrds
www.instagram.com/AmericanStandards
Tap to rate this tab
# A B C D E F G H I J K L M N O P Q R S T U V W X Y Z