Guitaretab - guitar tabs
Song name
# A B C D E F G H I J K L M N O P Q R S T U V W X Y Z

Amorphis - Morning Star tab

Tabbed by: Colin Attlesey [AttleseyC@Cogeco.ca]

Tomi
D|-----------------------|-----------------------|-----------------------|-----------------------|
A|-----------------------|-----------------------|-----------------------|-----------------------|
F|0--2--2--2--2--0--2--2-|0--2--2--2--2--0--2--2-|0--2--2--2--2--0--2--2-|0--2--2--2--2--0--2--2-|
C|0--2--2--2--2--0--2--2-|0--2--2--2--2--0--2--2-|0--2--2--2--2--0--2--2-|0--2--2--2--2--0--2--2-|
G|0--0--0--0--0--0--0--0-|0--0--0--0--0--0--0--0-|0--0--0--0--0--0--0--0-|0--0--0--0--0--0--0--0-|
D|-----------------------|-----------------------|-----------------------|-----------------------|

Tomi and Esa - Repeat Many Times
D|-----------------------|-----------------------|-----------------------|-----------------------|
A|-----------------------|-----------------------|-----------------------|-----------------------|
F|---2--2--2--2--0--2--2-|0--2--2--2--2--0--2--2-|0--2--2--2--2--0--2--2-|0--2--2--2--2--0--2--2-|
C|---2--2--2--2--0--2--2-|0--2--2--2--2--0--2--2-|0--2--2--2--2--0--2--2-|0--2--2--2--2--0--2--2-|
G|3--0--0--0--0--0--0--0-|0--0--0--0--0--0--0--0-|3--0--0--0--0--0--0--0-|0--0--0--0--0--0--0--0-|
D|-----------------------|-----------------------|-----------------------|-----------------------|
[ Tab from: http://www.guitaretab.com/a/amorphis/135155.html ]
Tomi and Esa
D|-----------------------|-----------------------|-----------------------|-----------------------|
A|-----------------------|-----------------------|-----------------------|-----------------------|
F|---2--2--2--2--0--2--2-|0--2--2--2--2--0--2--2-|0--2--2--2--2--0--2--2-|X--X-X-X-X--X--X-X-X-X-|
C|---2--2--2--2--0--2--2-|0--2--2--2--2--0--2--2-|0--2--2--2--2--0--2--2-|X--X-X-X-X--X--X-X-X-X-|
G|3--0--0--0--0--0--0--0-|0--0--0--0--0--0--0--0-|3--0--0--0--0--0--0--0-|X--X-X-X-X--X--X-X-X-x-|
D|-----------------------|-----------------------|-----------------------|-----------------------|

Tomi and Esa - Repeat Many Times
D|-----------------------|-----------------------|-----------------------|-----------------------|
A|-----------------------|-----------------------|-----------------------|-----------------------|
F|0--2--2--2--2--0--2--2-|0--2--2--2--2--0--2--2-|0--2--2--2--2--0--2--2-|0--2--2--2--2--0--2--2-|
C|0--2--2--2--2--0--2--2-|0--2--2--2--2--0--2--2-|0--2--2--2--2--0--2--2-|0--2--2--2--2--0--2--2-|
G|0--0--0--0--0--0--0--0-|0--0--0--0--0--0--0--0-|0--0--0--0--0--0--0--0-|0--0--0--0--0--0--0--0-|
D|-----------------------|-----------------------|-----------------------|-----------------------|




Tomi and Esa
D|-----------------------|-----------------------|-----------------------|-----------------------|
A|-----------------------|-----------------------|-----------------------|-----------------------|
F|7--7--7-7-7-7--7--7-7-7|5--5--5-5-5-3--3--3-3-3|7--7--7-7-7-7--7--7-7-7|5--5--5-5-5-3--3--3-3-3|
C|7--7--7-7-7-7--7--7-7-7|5--5--5-5-5-3--3--3-3-3|7--7--7-7-7-7--7--7-7-7|5--5--5-5-5-3--3--3-3-3|
G|5--5--5-5-5-5--5--5-5-5|3--3--3-3-3-1--1--1-1-1|5--5--5-5-5-5--5--5-5-5|3--3--3-3-3-1--1--1-1-1|
D|-----------------------|-----------------------|-----------------------|-----------------------|
Related for Morning Star tab
Advertisement will be closed in 10 seconds