Song name
# A B C D E F G H I J K L M N O P Q R S T U V W X Y Z

Amorphis - Brother Moon tab

Amorphis
Brother Moon
Eclipse

Vers and (intro) riff
Bb - Db - Ab - F - Bb

|----------------------------------------------------------------------|
|----------------------------------------6-4h6p4----------6-4h6p4------|
|--3-3-5-3h5p3------3-3-5-3h5p3------6-6---------6-5--6-6---------6-5--|
|--------------3-6--------------3-6------------------------------------|
|----------------------------------------------------------------------|
|----------------------------------------------------------------------|

|-------------------------------------------------------------|
|------4-----------4------------------------------------------|
|--------6-5-3-------6-5----3-3-5-3h5p3------3-3-5-3h5p3------|
|--6-6---------6-6-------6--------------3-6--------------3-6--|
|-------------------------------------------------------------|
|-------------------------------------------------------------|

(Extra after verse)
(|-------------------|)
(|-------------------|)
(|----------1-33333--|)
(|--1-33333----------|)
(|-------------------|)
(|-------------------|)

Bridge
Eb - Db - Gb - F - Db - Eb

|--14-11--11---------------------------------------------|
|-------11--11---11-------------------11-----------------|
|--------------13--13-10---------10-13---13-11-10--------|
|-----------------------11--11-13-----------------11-13--|
|--------------------------------------------------------|
|--------------------------------------------------------|

Bridge with song
Eb - Db - Gb - F - Db - Eb

|--14-11---------------------------------------------|
|--------11-----------------------11-----------------|
|-----------13-10-----------10-13----13-11-10--------|
|-----------------11--11-13-------------------11-13--|
|----------------------------------------------------|
|----------------------------------------------------|

Riff 1

|---------------------------|
|---------------------------|
|--8-10-11-15-13-10-8-6-8~--|
|---------------------------|
|--6-8--9--13-11-8--6-4-6~--|
|---------------------------|

Riff 1 with song

|--------------------------------|-1st end-|
|--------------------------------|---------|
|--6~-8~-9~-13~-11~-8~-6~-4~-6~--|--6b-4~--|
|--------------------------------|---------|
|--4~-6~-7~-11~-9~--6~-4~-2~-4~--|---------|
|--------------------------------|---------|

Riff 2
|-----------------------------------------------------------|
|-----------------------------------6-4h6p4----------6-4----|
|--3-3-5-3h5p3-----3-3-5-3h5p3--6-6---------6-5--6-6-----5--|
|--------------3-6------------------------------------------|
|-----------------------------------------------------------|
|-----------------------------------------------------------|

|--------------------------------------------------------|---1st---|--2nd--|
|------4-----------4-------------------------------------|--same---|-------|
|--------6-5-3-------6-5----3-3-5-3h5p3-----3-3-5-3h5p3--|---as----|-------|
|--6-6---------6-6-------6--------------3-6--------------|-riff-2--|--3-6--|
|--------------------------------------------------------|---------|-------|
|--------------------------------------------------------|---------|-------|

End

|-----------------------------------|
|-----------------------------------|
|--8~-10~-11~-15~-13~-10~-8~-6~-8~--|
|-----------------------------------|
|--6~-8~--9~--13~-11~-8~--6~-4~-6~--|
|-----------------------------------|


Submitted by Rasmus Strmberg rassi.stromberg@multi.fi
Tap to rate this tab
# A B C D E F G H I J K L M N O P Q R S T U V W X Y Z