Song name
# A B C D E F G H I J K L M N O P Q R S T U V W X Y Z

Anal Cunt - A-team Theme Song tab

THE A-TEAM GUITAR TAB
BY: ANAL CUNT
TABBED BY: CotyXD cotyxd@yahoo.com

---------------------------------------------------------------------|
---------------------------------------------------------------------|
---------------------------------------------------------------------|
---------------------------------------------------------------------|
--7--7-----7-------------------------7----9--7-------5--4--2po0--2---|
---------7----------4--7--0-----77--7--------------------------------|


---------------------------------------------------------------------|
---------------------------------------------------------------------|
------------------------------------------2--------------------------|
------------------------------------------2 strum yer ass off--------|
--7--7-----7----------------------------2----------------------------|
---------7----------4--7--0------------0-----------------------------|


----------------------------------------------------------------------|
----------------------------------------------------------------------|
-------------------------7-7---5--------------------------------------|
-7--7--5/-7--5--7--5-5---7-7---5-----7--7--5/-7--5----3-3-3---2-------|
-7--7--5/-7--5--7--5-5---5-5---3-----7--7--5/-7--5----3-3-3---2-------|strum
-5--5--3/-5--3--5--3-3---------------5--5--3/-5--3----1-1-1---0-------|
Tap to rate this tab
# A B C D E F G H I J K L M N O P Q R S T U V W X Y Z