Song name
# A B C D E F G H I J K L M N O P Q R S T U V W X Y Z

Anarbor - Gypsy Woman tab

Tuning (D# G# C# F# A# D#)
Verse 1
E||---------------------------------------|
B||---------------------------------------|
G||---------------------------------------|
D||4-4------4-4---------------------------| x2
A||4-4------4-4---------3-----------------|
E||2-2------2-2-----2-4--4----------------|

E||---------------------------------------|
B||---------------------------------------|
G||---------------------------------------|
D||4-4------4-4---------------------------|
A||4-4------4-4----7-9-77-9-77-9----------|
E||2-4------2-2---------------------------|
Play this part once^ both parts twice for verse 1.

Pre Chorus
E||--------------|
B||--------------|
G||----9---------|
D||9---9---------|
A||9---7---------|
E||7-------------|
(She took me to my knees...)

Chorus
E||-----------------------|
B||-----------------------|
G||------6----7-----------|
D||4-x8--6-x8-7-x8--7-----| x2
A||4-----4----5-----7-x8--|
E||2----------------5-----|

Post Chorus
E||-------------------|
B||-------------------|
G||-------------------|
D||-------------------|
A||----3-------3------|
E||-2-4-4---2-4-4-----|

Verse 2
E||---------------------------------------|
B||---------------------------------------|
G||---------------------------------------|
D||4-4------4-4---------------------------| x4
A||4-4------4-4---------3-----------------|
E||2-2------2-2-----2-4---4---------------|
Don't know the palm mute fills, sorry.

Pre chorus


Chorus


Post Chorus 2
E||-----------------------------|
B||-----------------------------|
G||-----------------------------|
D||-----------------------------|
A||----3-------3------3------3--|
E||-2-4-4---2-4-4--2-4-4--2-4-4-|

Bridge
E||-------------------------------------------------|
B||-------------------------------------------------|
G||-------14-14-14-13-13-13-11-11-11-10-10-10-11----|
D||4-4~---------------------------------------------| x2
A||4-4~---------------------------------------------|
E||2-2----------------------------------------------|
PM        . . . . . . . . . . . . . . . . . .


E||-------------------------------------------------|
B||-------------------------------------------------|
G||-------------------------------------------------|
D||-------------------------------------------------| x2
A||-------------------------------------------------|
E||22--2p00-0h55-5-77-5-77--------------------------|

E||----------------------------------|
B||----------------------------------|
G||----------------------------------|
D||4-----2----7----9-----------------| x2
A||4-x8--2-x8-7-x8-9-x8--------------|
E||2-----0----5----7-----------------|
Sorry no solo for you just rhythm.

E||----------------------|
B||----------------------|
G||----------------------|
D||----------------------| x2
A||----------------------|
E||7-7-5h7-7-5h7-7-5h7---|

E||------------------|
B||------------------|
G||------------------|
D||9~-----2~---------|
A||9~-----2~---------|
E||7~-----0~---------|
(Break me, yeah.)


Pre Final Chorus
E||-----------------------|
B||-----------------------|
G||---------7-7-----------|
D||4-4------7-7-----------|
A||4-4------5-5-----------|
E||2-2--------------------|
(Save me, she's a liar...)

Goes back into regular chorus after "i can't seem to untie"

Outro
E||--------------------------------------------------|
B||--------------------------------------------------|
G||--------------------------------------------------|
D||---------------------------------4-4----------4-4-|
A||----3-------3------3------3------4-4----------4-4-|
E||-2-4-4---2-4-4--2-4-4--2-4-4-----2-2----------2-2-|

Yeah sorry i couldn't get the lead parts i.
And remember this song is in a HALF STEP DOWN
if you wanna play it next to the song tune your guitar down
you can play it in standard just not with the song or it'll sound weird.
Comment for corrections thanks - Dan,
Tap to rate this tab
 
# A B C D E F G H I J K L M N O P Q R S T U V W X Y Z