Song name
# A B C D E F G H I J K L M N O P Q R S T U V W X Y Z

Anarbor - Useless tab

i saw a youtube video of someone playing this song pretty correctly with many comments 
for a tab, so i tabbed it out.

TUNING IS A HALF STEP DOWN FROM STANDARD

the strumming pattern is simple, just listen to song.

VERSE/INTRO

eb---------------------------------------------------------------------|
Bb---------------------------------------------------------------------|
Gb--11--------7--------6-----------------------------------------------|
Db---------------------------------------------------------------------|
Ab---------------------------------------------------------------------|
Eb--10--------7--------5-----------------------------------------------|

PRE CHORus
eb--0-------0---------0------0-----------------------------------------|
Bb--0-------2---------0------2-----------------------------------------|
Gb--0-------2---------0------2-----------------------------------------|
Db--2-------2---------2------2-----------------------------------------|
Ab--2-------0---------2------0-----------------------------------------|
Eb--0------------3-2--0------------------------------------------------|

CHORUS

eb---------------------------------------------------------------------|
Bb---------------------------------------------------------------------|
Gb-----7----2----6------4----------------------------------------------|
Db---------------------------------------------------------------------|
Ab---------------------------------------------------------------------|
Eb-----7----2----5------3----------------------------------------------|


that's all the chords.
for strumming patterns just listen to the song.
Tap to rate this tab
 
# A B C D E F G H I J K L M N O P Q R S T U V W X Y Z