Guitaretab - guitar tabs
Song name
# A B C D E F G H I J K L M N O P Q R S T U V W X Y Z

Anberlin - Said And Done tab

Anberlin
New Surrender
Said and Done

 If You Have Corrections, Please Comment,
    One because I Want To Know Where I
    Made Mistakes and I Want To Have An 
              Accurate Tab

Intro 
Repeat- 2x
E|--------------------------->-------------------------|
A|---------[3x]-------------->---------[1x]------------|
D|--------------------------->-------------------------|
G|--------------------------->------------------5-7----|
B|---00-9--07--05--0707~5--->--00-907---00-5-7---7-5-|
E|--------------------------->-------------------------|

Verse 1
Palm Mute
                                          
E|-------------------------------->--------------------------------|
A|--------------[2x]-------------->--------------[2x]--------------|
D|-------------------------------->--------------------------------|
G|--7777--77---7777--77---77-77--->--5555--55---5555--55---55-55---|
B|--9999--99---9999--99---99-99--->--7777--77---7777--77---77-77---|
E|-------------------------------->--------------------------------|

Palm Mute
                                          
E|-------------------------------->--------------------------------|
A|--------------[2x]-------------->--------------[1x]--------------|
D|-------------------------------->--------------------------------|
G|--7777--77---7777--77---77-77--->--5555--55---5555--55---55-55---|
B|--9999--99---9999--99---99-99--->--7777--77---7777--77---77-77---|
E|-------------------------------->--------------------------------|

Palm Mute
    
E|-------------->----------------|
B|-------------->----------------|
G|-------------->----------------|
D|--5555--55---->--------5-7-----|
A|--7777--77---->--00-5-7---7-5--|
E|-------------->----------------|

Pre-Chorus-(played quietly)             |drum fill| 
E|-------------------------------5-->--5---------------------------|
B|-------------[2x]--------------5-->--5---------------------------|
G|-------------------------------7-->--7---------------------------|
D|--------5-7------------5-7-----7-->--7-----------------5-7-------|
A|--00-5-7---7-5---00-5-7---7-5--5-->--5-----------00-5-7---7-5----|
E|-------------------------------5-->--5---------------------------|

Chorus-
 |=================Repeat==================|
 |=========2x=========|==========2x========|
E|--55555-------------|--55555-------------|-----------------------|
A|--55555-------------|--55555-------------|-----------------------|
D|--77777-7-7-7-7-7---|--77777-9-9-9-9-9---|-----------------------|
G|--77777-7-7-7-7-7---|--77777-7-7-7-7-7---|----------5-7----------|
B|--55555-------------|--55555-------------|----00-5-7---7-5-------|
E|--55555-------------|--55555-------------|-----------------------|

Filler
E|--------------------------->-------------------------|
A|---------[3x]-------------->---------[1x]------------|
D|--------------------------->-------------------------|
G|--------------------------->------------------5-7----|
B|---00-9--07--05--0707~5--->--00-907---00-5-7---7-5-|
E|--------------------------->-------------------------|
[ Tab from: http://www.guitaretab.com/a/anberlin/192035.html ]
Verse 2
Palm Mute
         
E|-----------------------------------------------------------------------|--------------|
A|---------------------------------[2x]----------------------------------|--------------|
D|-----------------------------------------------------------------------|--------------|
G|-999-99-99-99-99-99-99-99-99-99-99---777-77-77-77-77-77-77-77-77-77-77-|-------5-7----|
B|-999-99-99-99-99-99-99-99-99-99-99---777-77-77-77-77-77-77-77-77-77-77-|-00-5-7---7-5-|
E|-----------------------------------------------------------------------|--------------|

Chorus-
 |=================Repeat==================|
 |=========2x=========|==========2x========|==========2x===========|
E|--55555-------------|--55555-------------|-----------------------|
A|--55555-------------|--55555-------------|-----------------------|
D|--77777-7-7-7-7-7---|--77777-9-9-9-9-9---|----77-77-77-77-7-7----|
G|--77777-7-7-7-7-7---|--77777-7-7-7-7-7---|----77-77-77-77-7-7----|
B|--55555-------------|--55555-------------|-----------------------|
E|--55555-------------|--55555-------------|-----------------------|

Interlude
E|-----------------------------------------------------|
A|-----------------------------------------------------|
D|-----------------------------------------------------|
G|----------------------------------------------5-7----|
B|---00-9--07--05--0707~5------00-907---00-5-7---7-5-|
E|-----------------------------------------------------|

E|--------------------------->-------------------------|
A|---------[3x]-------------->-------------------------|
D|--------------------------->-------------------------|
G|--------------------------->------------------5-7----|
B|---00-9--07--05--0707~5--->--00-907---00-5-7---7-5-|
E|--------------------------->-------------------------|

E|-----------------------------------------------------|
A|-----------------------------------------------------|
D|-----------------------------------------------------|
G|------------------------------0-0--0--0--0-----------|
B|---00-9--07--05--0707~5-------9-12-14-16-17~~~~12p0-|
E|-----------------------------------------------------|

Pre-Chorus- played quietly)
E|-------------------------------5-------|-------------|
B|-------------[2x]--------------5-------|---3-2-0-----|
G|-------------------------------7-------|---------2---|
D|--------5-7------------5-7-----7-------|-------------|
A|--00-5-7---7-5---00-5-7---7-5--5-------|-------------|
E|-------------------------------5-------|-------------|

Chorus-

 |=================Repeat==================|
 |=========2x=========|==========2x========|
E|--55555-------------|--55555-------------|
A|--55555-------------|--55555-------------|
D|--77777-7-7-7-7-7---|--77777-9-9-9-9-9---|
G|--77777-7-7-7-7-7---|--77777-7-7-7-7-7---|
B|--55555-------------|--55555-------------|
E|--55555-------------|--55555-------------|

Outro-
E|--------------------------------------------------|
A|--------------------------------------------------|
D|--------------------------------------------------|
G|-------------------------------------------5-7----|
B|---00-9--07--05--0707~5---00-907---00-5-7---7-5-|
E|--------------------------------------------------|
                         
E|------------------------->------------------------|
A|---------[5x]------------>------------------------|
D|------------------------->------------------------|
G|------------------------->--0-0--0--0--0----------|
B|--00-9--07--05--0707~5-->---9-12-14-16-17~~~12p0-|
E|------------------------->------------------------|
Related for Said And Done tab