Song name
# A B C D E F G H I J K L M N O P Q R S T U V W X Y Z

Anberlin - Disappear tab

-------------------------------------------------------------------------------
			     Disappear - Anberlin
-------------------------------------------------------------------------------

Tabbed by: Josh
Email: joshdasian@hotmail.com

Since only one person has tabbed this song with only minor parts i'm going to try to 
tab the whole song.
This is my first tab so it's not gonna be perfect. And btw there's like 3 guitar parts 
i'm going to try make this tab playable by a single guitarist.
Comments and corrections will be welcome!

Tuning: Drop D

Intro:

e|---------------------------------------------------------------------------|
B|----------8---6-------8---6-------8---6-------8---6---------------6--------|
G|-------7----------------------------------------------------7--------(X2)--|
D|----5-------------5-----------5------------5-------------8-----8-----------|
A|---------------------------------------------------------------------------|
E|---------------------------------------------------------------------------|

e|---------------------------------------------------------------------------|
B|--------------8------------------------------------------------------------|
G|---------9--------(X2)-----------------------------------------------------|
D|-----10----10--------------------------------------------------------------|
A|---------------------------------------------------------------------------|
E|---------------------------------------------------------------------------|

Play the intro 3 times then:

e|---------------------------------------------------------------------------|
B|---------------------------------------------------------------------------|
G|---------------------------------------------------------------------------|
D|----5----------------------------------------------------------------------|
A|----5----------------------------------------------------------------------|
E|----5----------------------------------------------------------------------|

Then at 0:28 play the verse:

e|---------------------------------------------------------------------------|
B|---------------------------------------------------------------------------|
G|---------------------------------------------------------------------------|
D|----5555-XX-55-XX-5555---8888-XX-88---3333-XX-33---------------------------|
A|----5555-XX-55-XX-5555---8888-XX-88---3333-XX-33-----(X2)------------------|
E|----5555-XX-55-XX-5555---8888-XX-88---3333-XX-33---------------------------|

Bridge:

e|---------------------------------------------------------------------------|
B|---------------------------------------------------------------------------|
G|---------------------------------------------------------------------------|
D|----1----------10----------3-----------------------------------------------|
A|----1----------10----------3-----(X2)---1-1-1--0-0-0-----------------------|
E|----1----------10----------3---------------------------3-3-----------------|

Chorus:

e|---------------------------------------------------------------------------|
B|---------------------------------------------------------------------------|
G|---------------------------------------------------------------------------|
D|----555555555555--888888888888-----------------------555555555555555-------|
A|----555555555555--888888888888---1-1--0-0------------555555555555555-------|
E|----555555555555--888888888888--------------3-3--00--555555555555555-------|

e|---------------------------------------------------------------------------|
B|---------------------------------------------------------------------------|
G|---------------------------------------------------------------------------|
D|----101010101010---888888888---5555555555555---888888888888----------------|
A|----101010101010---888888888---5555555555555---888888888888----------------|
E|----101010101010---888888888---5555555555555---888888888888----------------|

e|---------------------------------------------------------------------------|
B|---------------------------------------------------------------------------|
G|---------------------------------------------------------------------------|
D|----------------------------1111111111111111111111-------------------------|
A|----1-1---0-0---------------1111111111111111111111-------------------------|
E|----------------3-3---0-0---1111111111111111111111-------------------------|

Then play the intro again but only two times instead of playing it three times:

e|---------------------------------------------------------------------------|
B|----------8---6-------8---6-------8---6-------8---6---------------6--------|
G|-------7----------------------------------------------------7--------(X2)--|
D|----5-------------5-----------5------------5-------------8-----8-----------|
A|---------------------------------------------------------------------------|
E|---------------------------------------------------------------------------|

e|---------------------------------------------------------------------------|
B|--------------8------------------------------------------------------------|
G|---------9--------(X2)-----------------------------------------------------|
D|-----10----10--------------------------------------------------------------|
A|---------------------------------------------------------------------------|
E|---------------------------------------------------------------------------|

Verse:

P.M. ........................................................

e|---------------------------------------------------------------------------|
B|---------------------------------------------------------------------------|
G|---------------------------------------------------------------------------|
D|---55555555555555555---88888888888888888---3333333333333333----------------|
A|---55555555555555555---88888888888888888---3333333333333333----(X4)--------|
E|---55555555555555555---88888888888888888---3333333333333333----------------|

Bridge:

e|---------------------------------------------------------------------------|
B|---------------------------------------------------------------------------|
G|---------------------------------------------------------------------------|
D|---1----------10----------3------------------------3-3-3-------------------|
A|---1----------10----------3--------1-1-1---3-3-3---------------------------|
E|---1----------10----------3------------------------------------------------|

Chorus:

e|---------------------------------------------------------------------------|
B|---------------------------------------------------------------------------|
G|---------------------------------------------------------------------------|
D|----555555555555--888888888888-----------------------555555555555555-------|
A|----555555555555--888888888888---1-1--0-0------------555555555555555-------|
E|----555555555555--888888888888--------------3-3--00--555555555555555-------|

e|---------------------------------------------------------------------------|
B|---------------------------------------------------------------------------|
G|---------------------------------------------------------------------------|
D|----101010101010---888888888---5555555555555---888888888888----------------|
A|----101010101010---888888888---5555555555555---888888888888----------------|
E|----101010101010---888888888---5555555555555---888888888888----------------|

e|---------------------------------------------------------------------------|
B|---------------------------------------------------------------------------|
G|----------------------------------------------------1010101010-------------|
D|----------------------------1111111111111111111111---X-X-X-X-X-------------|
A|----1-1---0-0---------------1111111111111111111111---8-8-8-8-8-------------|
E|----------------3-3---0-0---1111111111111111111111-------------------------|

Solo!!!:

e|---------------------------------------------------------------------------|
B|---------------------------------------------------------------------------|
G|---------------------------------------------------------------------------|
D|---------------------------------------------------------------------------|
A|---5-----3--5-------5-----3--5---------------------------------------------|
E|------5--------5~------5--------5~---7-7-7-7-------------------------------|

e|---------------------------------------------------------------------------|
B|---------------------------------------------------------------------------|
G|---------------------------------------------------------------------------|
D|---0--------0-------0--------0---------------------------------------------|
A|------1--3-----1~------1--3-----1~---0-0-0-0-------------------------------|
E|---------------------------------------------------------------------------|

e|---------------------------------------------------------------------------|
B|---------------------------------------------------------------------------|
G|---------------------------------------------------------------------------|
D|---------------------------------------------------------------------------|
A|---5-----3--5-------5-----3--5---------------------------------------------|
E|------5--------5~------5--------5~---7-7-7-7-------------------------------|

e|---------------------------------------------------------------------------|
B|---------------------------------------------------------------------------|
G|---------------------------------------------------------------------------|
D|---0--------0-------0--------0---------------------------------------------|
A|------1--3-----1~------1--3-----1~---0-0-0-0-------------------------------|
E|---------------------------------------------------------------------------|

e|---------------------------------------------------------------------------|
B|---------------------------------------------------------------------------|
G|---------------------------------------------------------------------------|
D|---------------------------------------------------------------------------|
A|---5-----3--5-------5-----3--5---------------------------------------------|
E|------5--------5~------5--------5~---7-7-7-7-------------------------------|

e|---------------------------------------------------------------------------|
B|---------------------------------------------------------------------------|
G|---------------------------------------------------------------------------|
D|---0--------0-------0--------0---------------------------------------------|
A|------1--3-----1~------1--3-----1~---0-0-0-0-------------------------------|
E|---------------------------------------------------------------------------|

e|---------------------------------------------------------------------------|
B|---------------------------------------------------------------------------|
G|---------------------------------------------------------------------------|
D|------------------------------------0-0-0----------------------------------|
A|----------3-3-3--1-1---------3-3-3-----------------------------------------|
E|---1-1-1--------------3-3-3------------------------------------------------|

After the solo play the verse:

e|---------------------------------------------------------------------------|
B|---------------------------------------------------------------------------|
G|---------------------------------------------------------------------------|
D|----555555555555--888888888888-----------------------555555555555555-------|
A|----555555555555--888888888888---1-1--0-0------------555555555555555-------|
E|----555555555555--888888888888--------------3-3--00--555555555555555-------|

e|---------------------------------------------------------------------------|
B|---------------------------------------------------------------------------|
G|---------------------------------------------------------------------------|
D|----101010101010---888888888---5555555555555---888888888888----------------|
A|----101010101010---888888888---5555555555555---888888888888----------------|
E|----101010101010---888888888---5555555555555---888888888888----------------|

e|---------------------------------------------------------------------------|
B|---------------------------------------------------------------------------|
G|---------------------------------------------------------------------------|
D|----------------------------1111111111111111111111-------------------------|
A|----1-1---0-0---------------1111111111111111111111-------------------------|
E|----------------3-3---0-0---1111111111111111111111-------------------------|

Then play the verse again but instead of ending with this:

e|---------------------------------------------------------------------------|
B|---------------------------------------------------------------------------|
G|---------------------------------------------------------------------------|
D|---1111111111111111111111--------------------------------------------------|
A|---1111111111111111111111--------------------------------------------------|
E|---1111111111111111111111--------------------------------------------------|

End with this:

e|---------------------------------------------------------------------------|
B|---------------------------------------------------------------------------|
G|---------------------------------------------------------------------------|
D|-------------------------------------0-0------5----------------------------|
A|-----------3-3-3--1-1---------3-3-3-----------5----------------------------|
E|----1-1-1--------------3-3-3------------------5----------------------------|

Well that took forever but enjoy!!!


| /  slide up
| \  slide down
| h  hammer-on
| p  pull-off
| ~  vibrato
| +  harmonic
| X  Mute note
Tap to rate this tab
# A B C D E F G H I J K L M N O P Q R S T U V W X Y Z