Song name
# A B C D E F G H I J K L M N O P Q R S T U V W X Y Z

And You Will Know Us By The Trail Of Dead - Relative Ways tab

and you will know us by the trail of dead- relative ways

tabbed by skunkybutter@hotmail.com

intro riff

e---------------------------------------------------------------------|
b---------9---9--------9---9------------------------------------------|
g-----------6------------6--------------------------------------------|
d------7------------7-------------------------------------------------|
a------0------------0-------------------------------------------------|
e---------------------------------------------------------------------|

verse riff

e-------------7-------------------------------------------------------|
b-----9----7-------9----7---------------------------------------------|
g---------------------------------------------------------------------|
d--------------------------9------------------------------------------|
a---------------------------------------------------------------------|
e---------------------------------------------------------------------|

this song has the best guitar sound ive heard in a long time

ello leez
Tap to rate this tab
 
# A B C D E F G H I J K L M N O P Q R S T U V W X Y Z