Guitaretab - guitar tabs
Song name
# A B C D E F G H I J K L M N O P Q R S T U V W X Y Z

Andre Nickatina - God And The Stripper tab

Song:   The God And The Stripper
Artist: Andre Nickatina
Album:  Conversation With A Devil

Tuning - Standard
[ Tab from: http://www.guitaretab.com/a/andre-nickatina/189056.html ]
e|---4-6-7-4-6-3-4------------------------------------------|
B|-4---------------4-5---4---------------7-----5-7-----5-7--|
G|---------------------6---4-----------------4-------4------|
D|---------------------------6p5---8-5-6---5-------5--------|
A|-------------------------------6--------------------------|
E|----------------------------------------------------------|

e|---------------0-------0----------------------------------|
B|---5h7-------0-------0---------4--------------------------|
G|-----------1-------1-------0-3----------------------------|
D|-5-----2-2-------2-------1--------------------------------|
A|----------------------------------------------------------|
E|----------------------------------------------------------|

Questions/Comments - Radioheadfreak666@gmail.com
Related for God And The Stripper tab
Advertisement will be closed in 10 seconds