Song name
# A B C D E F G H I J K L M N O P Q R S T U V W X Y Z

Andrew York - 3 Delineations - Lullaby tab

3 Delineations - Lullaby - Andrew York (born 1958)

measures 13,16,29,30 corrected - Dave Kliewer, Feb 2003

additional corrections made per original score / CD - jim shea 12/2004

"There is a section (bars 30-32) where Andrew York plays the melody with
RH harmonics, very tricky but beautiful and worth the effort. While this
is actually not notated in the score, he plays it this way on the CD and
also when he performs it live. York has mastered RH harmonics and can
produce them with almost any combination of his RH fingers. For this
piece he uses the M to damp and the A to pluck, or at least that is what
he did when I saw him perform it." - jim shea

1
E---|--------------------5--|--------------------5--|-------------------|
B---|--3-----3-----5--------|--3-----3-----5--------|-------------------|
G---|-----0-----0-----0-----|-----0-----0-----0-----|-------------------|
D---|--4-----4-----5--------|--4-----4-----5--------|-------------------|
A---|--0-----------0--------|--0-----------0--------|-------------------|
D---|-----------------------|-----------------------|-------------------|

3
E---5h7p5--------------------------|-----------------------------|------|
B-------------------------------7--|--6-----------------------6--|------|
G----------------0-----0-----------|-----------0-----0-----------|------|
D-------------4-----7-----4--------|--------3-----7-----3--------|------|
A----------0-----------------------|-----0-----------------------|------|
D---0------------------------------|--0--------------------------|------|

5
E---0-----------------3--2h3p2--0--|-----------------------5--|---------|
B------------3--2--------2---------|--7--------------0--------|---------|
G---------4-----4--------2---------|-----------0--------6-----|---------|
D------5--------5------------------|--------4-----7-----------|---------|
A---0-----------0------------------|-----0--------------------|---------|
D----------------------------------|--0-----------------------|---------|

7                   harm                  C5 -  -
E---5h7p5---------------------10--9\5--|--6--------0-----10--8\3--|-----|
B--------------------------------------|-----5--------3-----------|-----|
G----------------0---------------------|--7-----7-----3-----------|-----|
D-------------4------------------------|--------------------------|-----|
A----------0--------12-----------------|--------------3-----------|-----|
D---0----------------------------------|--5-----------------------|-----|

9                                         harm
E---5-----------5----------|------------------------------|-------------|
B------6-----6--3-------8--|--7---------------------------|-------------|
G---5-----5-----4--4/6-----|-----------0---------0--------|-------------|
D---3----------------7-----|--------4---------------4-----|-------------|
A---------------0----------|-----0--------12-----------0--|-------------|
D--------------------------|--0---------------------------|-------------|

11
E------0--------5-----------|--5-----5--6--5-----5--3--|----------------|
B---3-----6--8--5--5--------|-----6-----------5--------|----------------|
G---------------6-----6-----|--7-----6-----5-----4-----|----------------|
D---3-----7--------------7--|--------------------------|----------------|
A---------------0-----------|--0-----0-----0-----0-----|----------------|
D---0-----------------------|--------------------------|----------------|

13
E------0--1--3-------------|-----0--------5-----------|-----------------|
B---3-----------2----------|--3-----7--8--5--5--------|-----------------|
G---3-----------2----------|--------------6-----6-----|-----------------|
D------------------2/8--7--|--4-----7--------------7--|-----------------|
A---0-----------0----------|--------------0-----------|-----------------|
D--------------------------|--0-----------------------|-----------------|

15
E---5-----5--6--5-----5--3--|-----0--1--3--5-----------|----------------|
B------7-----------5--------|--3-----------------------|----------------|
G---7-----6-----5-----4-----|--3--------------6-----0--|----------------|
D---------------------------|--------------7-----7-----|----------------|
A---0-----0-----0-----0-----|--0-----------0-----------|----------------|
D---------------------------|--------------------------|----------------|

17
E---------------------5--|--------------------5--|----------------------|
B---3-----3-----5--------|--3-----3-----5--------|----------------------|
G------0-----0-----0-----|-----0-----0-----0-----|----------------------|
D---4-----4-----5--------|--4-----4-----5--------|----------------------|
A---------------0--------|--0-----------0--------|----------------------|
D---0--------------------|-----------------------|----------------------|

19                  harm          harm
E----------------------------------------------|------------------------|
B----------------7---------10------------7-----|------------------------|
G-------------------12------------12-----------|------------------------|
D---7h9p7-----------------------------------4--|------------------------|
A-------------0--------------------------------|------------------------|
D---0------------------------------------------|------------------------|

20              harm          harm
E------------------------------------------|----------------------------|
B---------6------------10------------6-----|----------------------------|
G---------------12------------12-----------|----------------------------|
D---3-----------------------------------3--|----------------------------|
A------0-----------------------------------|----------------------------|
D---0--------------------------------------|----------------------------|

21
E---------------0---------------|-----------0--2--3--5-----|------------|
B---------0--3--2---------------|--------3-----3-----2-----|------------|
G------0--------0---------------|-----------2--------------|------------|
D---2--------------5--4h5p4--2--|--4--------------------7--|------------|
A---0---------------------------|-----0--------------------|------------|
D-------------------------------|--0-----------------------|------------|

23                  harm   harm
E---------------------------------------------|-------------------------|
B-------------7-------------------------------|-------------------------|
G-------------------12------------------------|-------------------------|
D---7h9p7---------------------------12--11\7--|-------------------------|
A----------0---------------5------------------|-------------------------|
D---0-----------------------------------------|-------------------------|

24  C5 -  -  -                    C1 -  -  -
E-----------------------0------|--------1--------0--------|-------------|
B------5-----5-----------------|-----1-----1-----3--2-----|-------------|
G---------7-----------------0--|--2-----------2--0-----0--|-------------|
D---8---------------12--10-----|--------------------------|-------------|
A---5--------------------------|--------------0-----------|-------------|
D---5-----------10-------------|--3-----------------------|-------------|

26           C2 -  -  -  ------------------------------------------------|
E------------------2--------|-----0--------5-----------|-----------------|
B---------------3-----3-----|--3-----6--8--5--5--------|-----------------|
G------------2-----------2--|--------------6-----6-----|-----------------|
D---4-----------------------|--3-----7--------------7--|-----------------|
A------0--5-----------------|--------------0-----------|-----------------|
D---0-----------------------|--0-----------------------|-----------------|

28
E---5-----5--6--5-----5--3--|-----0--1--3-------------|-----------------|
B------6-----------5--------|--3-----------2----------|-----------------|
G---7-----6-----5-----4-----|--3-----------2----------|-----------------|
D---------------------------|-----------------2/8--7--|-----------------|
A---0-----0-----0-----0-----|--0-----------0----------|-----------------|
D---------------------------|-------------------------|-----------------|

30 (melody in RH harm) --------------------------------------------------|
E-----<0><2><3><5>----------|-<5>---<5><6><5>---<5><3>-|-----------------|
B--<3>----------5--5--------|-----7-----------5--------|-----------------|
G---------2-----6-----6-----|--7-----6-----5-----4-----|-----------------|
D---4--------------------7--|--------------------------|-----------------|
A---------------0-----------|--0-----0-----0-----0-----|-----------------|
D---0-----------------------|--------------------------|-----------------|

32  (melody in RH harm) -------------------------------------------------|
E-----<0><1><3><5>----------|--------------------5--|--------------------|
B--<3>----------------------|--3-----3-----5--------|--------------------|
G---3--------------6-----0--|-----0-----0-----0-----|--------------------|
D---------------7-----7-----|--4-----4-----5--------|--------------------|
A---0-----------0-----------|--------------0--------|--------------------|
D---------------------------|--0--------------------|--------------------|

34
E---------------------5--|--------------------------|----------------------|
B---3-----3-----5--------|--3-----3-----3-----2-----|----------------------|
G------0-----0-----0-----|-----0-----0-----0-----0--|----------------------|
D---4-----4-----5--------|--3-----3-----2-----2-----|----------------------|
A---0-----------0--------|--0-----------0-----------|----------------------|
D------------------------|--------------------------|----------------------|

36              harm               C2 -  - --------------------------|               harm
E-------------------------------|--2--3--2-----2--3p2p0--2--------|--|
B---3------------------0-----3--|--2--------5--0------------------|--|
G---2--------0------------6-----|--2--4--2-----0------------------|--|
D---4-----4---------------------|---------------------------------|--|
A------0--------12--------------|--0-----------0------------5-----|--|
D---0---------------------------|---------------------------------|--|

38  C2 -  -  ------------------------------------------------------------|
E---2--3--2-----2--3p2p0--2--5--|--5-----------------------|-------------|
B---2--------5--0---------0--2--|--3-----------0--3--2-----|-------------|
G---2--4--2-----0------------0--|-----0-----2--0-----2-----|-------------|
D-------------------------------|--4-----4-----------------|-------------|
A---0-----------0------------0--|--------------0--------0--|-------------|
D-------------------------------|--0-----------------------|-------------|

40
E---5-----------------------|--5--||
B---3-----------0--3--2-----|--3--||
G------0-----2--0-----2-----|-----||
D---4-----4-----------------|--4--||
A---------------0--------0--|-----||
D---0-----------------------|--0--||

=====================
TABLATURE EXPLANATION
=====================

----------|
----5h8---| hammer on
----------|
----5p8---| pull off
----------|

----------|
----5/8---| slide up
----------|
----5\8---| slide down
----------|

===============================================
== Created with a demo version of BUCKET O' TAB
== tablature creation software for Windows
== For more info email gse@his.com
===============================================
Tap to rate this tab
 
# A B C D E F G H I J K L M N O P Q R S T U V W X Y Z