Song name
# A B C D E F G H I J K L M N O P Q R S T U V W X Y Z

Andy Mckee - For My Father tab

i havent learned the whole song yet but this is a good portion of it. i know its
not all correct but its pretty freakin close. tuning is ECDGAB

B---------0--------------0--------------0--------------0-------------------|
A-2/5-3----3-----3/5-5----5---2h3/5-3----3-----3/5-5----5---2h3/5----------|
G-0-----0---0---0------0---0----------0---0---0------0---0-----------------|
D------2-----2-2------4-----4--------2-----2-2------4-----4----------------|
C-----0-------0------2--------------0-------0------2-----------------------|
E--------------------------------------------------------------------------|


B----0---------0-0------------------0------------------0-------------------|
A-7------0-----7-----0----------3-----3---3------2h3p2-0-------------------|
G------0---0---0---0---0-------4-4-----4-4-----0------------0--------------|
D------------0-7---------0----5---5-----5-----0-----------0----------------|
C--------------0----------------------------0------------------------------|
E-0------7-----------7------5----------------------------------------------|
**
B---------------------------------------------------------------0-------0--|
A-0h2---2h3p0-0--------------0---------------0h2--2h3p0-0------------0h2---|
G-----0--------0-----0----0h2-2h4p0-----0--------0-------0--2/4------------|
D-------------------0----0----------0h2--2p0-----------------------2-------|
C------------------4----------------0-----------------------------0--------|
E-3-----------2---2-----0--------------------3----------2--0---------------|


B--------------------------------------------------------------------------|
A-0h2p0-----0-0h2--2h3p0-0------------0---------------0h2--2h3p0-0---------|
G-------0--0------0-------0----0---0h2-2h4p0-----0--------0-------0----0---|
D--------/4-------------------0---0----------0h2--2p0-----------------0----|
C----------------------------4---------------0-----------------------4-----|
E-------------3----------2--2----0--------------------3----------2--2------|

B-------------4/5--5p4p0-0h2p0--0--------------0-4/5--7/9p0-5h7p5-----5----|
A-0-----------5---0------------0-------2h3-0---0-5---0-------------5h7-----|
G---0-------------------------------0-----0--0--------------------0--------|
D-----0-----------------------------------------------------0--------------|
C-------0----------------0-------------------------------------------------|
E-3-------/7--0-------------------3--3-----2-----0-------------------------|


B---0h2--0-----------------------------------------------------------------|
A-------0--0---------------------------------------------------------------|
G------------0------repeat from **-----------------------------------------|
D------------2/4-----------------------------------------------------------|
C-0------------------------------------------------------------------------|
E--------------------------------------------------------------------------|

B---------------------0-2--4--5--4--5--7--4--5--7--4--5--0-9p5--5--7p4--4---|
A------2h3-0---------0---0--0--0--0--0--0--0--0--0--0--0-------5-5-----5-5--|
G--0------0-----0---0-----0--0--0--0--0--0--0--0--0--0--0-----7---7---7---7-|
D--------------0---4--------------------------------------------------------|
C-------------4------------------0------------------------------------------|
E-3--3-----2-2----0-----0-----------------3--------2------------------------|


B-0------------------0-0-------------------------4---0---------------------|
A--0----------2h3-0--2--0h2p0----------0h1p0-----2---2------2h3-0----------|
G---0-----0------0---0--------0----0--------0---0---0---0------0------0----|
D----0---------------0---------4-1-1----------2----4-----------------0-----|
C------0-------------0-----------3---3--------0----2----------------4------|
E--------3--3-----2--1---------------------------------3--3-----2--2-------|

B------------------------------------------------0-------------------------|
A------0---------------0h2--2h3p0-0------0-------0h2-----------------------|
G---0h2-2h4p0-----0--------0-------0----0--0-----0-------------------------|
D--0----------0h2--2p0-----------------0-----0---0-------------------------|
C-------------0-----------------------4--------0-0-------------------------|
E-0--------------------3----------2--2---3-------3-------------------------|


i havent been able to complete the structure of the song yet. there are two more
parts in here one on fret 7 and one with a with 5-4-2p0 on the first string if
anyone knows their complete structure please let me know at nrn269@hotmail.com or
just post them. i would love to know the entire song before i leave for basic
training
Tap to rate this tab
 
# A B C D E F G H I J K L M N O P Q R S T U V W X Y Z