Song name
# A B C D E F G H I J K L M N O P Q R S T U V W X Y Z

Andy Mckee - Drifting tab

Please buy my new cd, Gnomeria
- Alternate_Tuning


Drifting
by Andy McKee



                                                       NH    
     E  S S E  E  S S E  Q       E  S S E  E  E  E     Q     
D||---------------------------|---------------------<>12----|
A||---------------------------|---------------------<>12----|
G||---------------------------|---------------------<>12----|
D||---------------------------|-----------------------------|
A||--2--x-x-x--2--L-x-x--x----|--2--x-x-x--x-----x----------|
D||--2--x-x-x--2--L-x-x--x----|--2--x-x-x--x-----x----------|


                                                    NH    
  E  S S E  E  S S E  Q       E  S S E  E  E  E     Q     
---------------------------|---------------------<>12----|
---------------------------|---------------------<>12----|
---------------------------|---------------------<>12----|
---------------------------|-----------------------------|
--2--x-x-x--2--L-x-x--x----|--2--x-x-x--x-----x----------|
--2--x-x-x--2--L-x-x--x----|--2--x-x-x--x-----x----------|


                                                    NH    
  E  S S E  E  S S E  Q       E  S S E  E  E  E     Q     
---------------------------|---------------------<>12----|
---------------------------|---------------------<>12----|
---------------------------|---------------------<>12----|
---------------------------|-----------------------------|
--2--x-x-x--2--L-x-x--x----|--2--x-x-x--x-----x----------|
--2--x-x-x--2--L-x-x--x----|--2--x-x-x--x-----x----------|


                                                    NH    
  E  S S E  E  S S E  Q       E  S S E  E  E  E     Q     
---------------------------|---------------------<>12----|
---------------------------|---------------------<>12----|
---------------------------|---------------------<>12----|
---------------------------|-----------------------------|
--2--x-x-x--2--L-x-x--x----|--2--x-x-x--x-----x----------|
--2--x-x-x--2--L-x-x--x----|--2--x-x-x--x-----x----------|


      T                T              T               
  E   E  E  E  Q    E  E     E  E  E  E  E  E  E  E   
---------0----------------|-----------------0--------|
------------0-------------|--------0--------------0--|
-----11--------0-------6--|-----0-----6--------------|
--------------------------|--------------------------|
--2------x-----2----x-----|--5-----x-----7-----x-----|
--2------x-----2----x-----|--5-----x-----7-----x-----|


     T              T  T                              
  E  E  E  E  E  E  E  E     E  E  E  E  E  E  E  E   
--------0--------x--------|--------0--------0--------|
-----------0-----x--------|-----0-----------------0--|
-----6--------0--------4--|-----------9--------6-----|
--------------------------|--------------------------|
--2-----x-----2-----x-----|--5-----x-----7-----x-----|
--2-----x-----2-----x-----|--5-----x-----7-----x-----|


      T                      T              T               
  E   S   S   S S E  Q    E  E     E  E  E  E  E  E  E  E   
----------------0---------------|-----------------0--------|
------------------0-------------|--------0--------------0--|
-----11h-12p-11------0-------6--|-----0-----6--------------|
--------------------------------|--------------------------|
--2-----------x------2----x-----|--5-----x-----7-----x-----|
--2-----------x------2----x-----|--5-----x-----7-----x-----|


     T              T  T                              
  E  E  E  E  E  E  E  E     E  E  E  E  E  E  E  E   
--------0--------x--------|--------0--------0--------|
-----------0-----x--------|-----0-----------------0--|
-----6--------0--------4--|-----------9--------6-----|
--------------------------|--------------------------|
--2-----x-----2-----x-----|--5-----x-----7-----x-----|
--2-----x-----2-----x-----|--5-----x-----7-----x-----|


  T  T  T       T                                           
  E  S  S   E   E   E  E  E  E     E  E  Q    Q    E    E   
-----------------------0-----0--|-----0--0----0----0-------|
--------------------------0--0--|-----0--0----0----0-------|
---------------11s--9--------9--|--L--9--9----9----9h--11--|
-----9-11h-12----------------0--|--L--0--0----0----0-------|
-----------------------------9--|--L--9--9----9----9-------|
--9--------------------------0--|--L--0--0----0----0-------|


  T  T  T       T                                             
  E  S  S   E   E   E  E  E  E     E  E  Q    E    E  E   E   
-----------------------0-----0--|-----0--0----0--------------|
--------------------------0--0--|-----0--0----0--------------|
---------------11s--9--------9--|--L--9--9----9h--11---------|
-----9-11h-12----------------0--|--L--0--0----0-------9p--7--|
-----------------------------9--|--L--9--9----9--------------|
--9--------------------------0--|--L--0--0----0--------------|


     T       T                                NH    
  E  S  S E  E   E  E  E  E     E  E  Q       Q     
----------0------------------|-------------<>12----|
--------------------0--------|-------------<>12----|
-------------9s--7-----6--6--|--L--6--6----<>12----|
-----7s-9--------------7--7--|--L--7--7------------|
--5--------------------7--7--|--L--7--7------------|
--5--------------------7--7--|--L--7--7------------|


     T         T                                  NH    
  E  E   E  E  E   E  E  E     E  E  Q    Q       Q     
------------0------------0--|-----0--0----0----<>12----|
----------------------0--0--|-----0--0----0----<>12----|
---------------9s--7-----2--|--L--2--2----2----<>12----|
-----7s--9---------------0--|--L--0--0----0------------|
--5----------------------0--|--L--0--0----0------------|
--5----------------------0--|--L--0--0----0------------|


  T                     T              T           T     
  E  E  E  E  E   E  E  E     E  E  E  E  E  E     Q     
--------0------------0-----|--------0-----------<>12----|
-----------0---------0-----|--------0-----------<>12----|
-----0---------------0--4--|--------0-----------<>12----|
--4-----------0h--2--------|-----0----------------------|
--2------------------------|--5--------9-----7----------|
--2------------------------|--5-----------7-------------|


  T                     T              T           T     
  E  E  E  E  E   E  E  E     E  E  E  E  E  E     Q     
--------0------------0-----|--------0-----------<>12----|
-----------0---------0-----|--------0-----------<>12----|
-----0---------------0--4--|--------0-----------<>12----|
--4-----------0h--2--------|-----0----------------------|
--2------------------------|--5--------9-----7----------|
--2------------------------|--5-----------7-------------|


  T                     T              T              
  E  E  E  E  E   E  E  E     E  E  E  E  E  E  Q     
--------0------------0-----|--------0-----------0----|
-----------0---------0-----|--------0-----------0----|
-----0---------------0--4--|--------0-----------0----|
--4-----------0h--2--------|-----0-------------------|
--2------------------------|--5--------9-----7-------|
--2------------------------|--5-----------7----------|


                  NH     NH                     NH        
   E  E  E  E     Q      Q       E  E  E  E     H         
------0--------<>12----<>7----|-----0--L-----<>12--------|
---------0-----<>12----<>7----|-----0--L-----<>12--------|
--11--------0--<>12----<>7----|-----0--L-----<>12--------|
------------------------------|--------------------------|
---2--------2-----------------|--2--------2--------------|
---2--------2-----------------|--2--------2--------------|


      T                T              T               
  E   E  E  E  Q    E  E     E  E  E  E  E  E  E  E   
---------0----------------|-----------------0--------|
------------0-------------|--------0--------------0--|
-----11--------0-------6--|-----0-----6--------------|
--------------------------|--------------------------|
--2------x-----2----x-----|--5-----x-----7-----x-----|
--2------x-----2----x-----|--5-----x-----7-----x-----|


     T              T  T                              
  E  E  E  E  E  E  E  E     E  E  E  E  E  E  E  E   
--------0--------x--------|--------0--------0--------|
-----------0-----x--------|-----0-----------------0--|
-----6--------0--------4--|-----------9--------6-----|
--------------------------|--------------------------|
--2-----x-----2-----x-----|--5-----x-----7-----x-----|
--2-----x-----2-----x-----|--5-----x-----7-----x-----|


      T                      T              T               
  E   S   S   S S E  Q    E  E     E  E  E  E  E  E  E  E   
----------------0---------------|-----------------0--------|
------------------0-------------|--------0--------------0--|
-----11h-12p-11------0-------6--|-----0-----6--------------|
--------------------------------|--------------------------|
--2-----------x------2----x-----|--5-----x-----7-----x-----|
--2-----------x------2----x-----|--5-----x-----7-----x-----|


     T              T  T                              
  E  E  E  E  E  E  E  E     E  E  E  E  E  E  E  E   
--------0--------x--------|--------0--------0--------|
-----------0-----x--------|-----0-----------------0--|
-----6--------0--------4--|-----------9--------6-----|
--------------------------|--------------------------|
--2-----x-----2-----x-----|--5-----x-----7-----x-----|
--2-----x-----2-----x-----|--5-----x-----7-----x-----|


  T  T  T       T                                           
  E  S  S   E   E   E  E  E  E     E  E  Q    Q    E    E   
-----------------------0-----0--|-----0--0----0----0-------|
--------------------------0--0--|-----0--0----0----0-------|
---------------11s--9--------9--|--L--9--9----9----9h--11--|
-----9-11h-12----------------0--|--L--0--0----0----0-------|
-----------------------------9--|--L--9--9----9----9-------|
--9--------------------------0--|--L--0--0----0----0-------|


  T  T  T       T                                             
  E  S  S   E   E   E  E  E  E     E  E  Q    E    E  E   E   
-----------------------0-----0--|-----0--0----0--------------|
--------------------------0--0--|-----0--0----0--------------|
---------------11s--9--------9--|--L--9--9----9h--11---------|
-----9-11h-12----------------0--|--L--0--0----0-------9p--7--|
-----------------------------9--|--L--9--9----9--------------|
--9--------------------------0--|--L--0--0----0--------------|


     T       T                                NH    
  E  S  S E  E   E  E  E  E     E  E  Q       Q     
----------0------------------|-------------<>12----|
--------------------0--------|-------------<>12----|
-------------9s--7-----6--6--|--L--6--6----<>12----|
-----7s-9--------------7--7--|--L--7--7------------|
--5--------------------7--7--|--L--7--7------------|
--5--------------------7--7--|--L--7--7------------|


     T         T                                  NH    
  E  E   E  E  E   E  E  E     E  E  Q    Q       Q     
------------0------------0--|-----0--0----0----<>12----|
----------------------0--0--|-----0--0----0----<>12----|
---------------9s--7-----2--|--L--2--2----2----<>12----|
-----7s--9---------------0--|--L--0--0----0------------|
--5----------------------0--|--L--0--0----0------------|
--5----------------------0--|--L--0--0----0------------|


  T                     T              T           T     
  E  E  E  E  E   E  E  E     E  E  E  E  E  E     Q     
--------0------------0-----|--------0-----------<>12----|
-----------0---------0-----|--------0-----------<>12----|
-----0---------------0--4--|--------0-----------<>12----|
--4-----------0h--2--------|-----0----------------------|
--2------------------------|--5--------9-----7----------|
--2------------------------|--5-----------7-------------|


  T                     T              T           T     
  E  E  E  E  E   E  E  E     E  E  E  E  E  E     Q     
--------0------------0-----|--------0-----------<>12----|
-----------0---------0-----|--------0-----------<>12----|
-----0---------------0--4--|--------0-----------<>12----|
--4-----------0h--2--------|-----0----------------------|
--2------------------------|--5--------9-----7----------|
--2------------------------|--5-----------7-------------|


  T                     T              T              
  E  E  E  E  E   E  E  E     E  E  E  E  E  E  Q     
--------0------------0-----|--------0-----------0----|
-----------0---------0-----|--------0-----------0----|
-----0---------------0--4--|--------0-----------0----|
--4-----------0h--2--------|-----0-------------------|
--2------------------------|--5--------9-----7-------|
--2------------------------|--5-----------7----------|


  T  T  T           T                                         NH    
  E  S  S   E    E  E   E   E   E     E   E   Q     E   E     Q     
-----------------------------------|-----------------------<>12----|
-----------------------------------|-----------------------<>12----|
----------------------------9---9--|--L---9---9-----9---9--<>12----|
-----9-11h-12s--11--9p--7--10--10--|--L--10--10----10--10----------|
---------------------------10--10--|--L--10--10----10--10----------|
--9------------------------10--10--|--L--10--10----10--10----------|


                                                 NH                             
  Q    Q    E  E  E  E     E  E  E   E  E  E     Q       Q    Q    E  E  E  E   
--0----0----0--0--0--0--|--L--0--0---L--L--0--<>12----|--0----0----0--0--0--0--|
--0----0----0--0--0--0--|--L--0--0---L--L--0--<>12----|--0----0----0--0--0--0--|
--0----0----0--0--0--4--|--L--4--4s--6--L--6--<>12----|--0----0----0--0--0--4--|
--4----4----4--4--4--5--|--L--5--5s--7--L--7----------|--4----4----4--4--4--5--|
--2----2----2--2--2--5--|--L--5--5s--7--L--7----------|--2----2----2--2--2--5--|
--2----2----2--2--2--5--|--L--5--5s--7--L--7----------|--2----2----2--2--2--5--|


                        NH                             
  E  E  E   E  E  E     Q       Q    Q    E  E  E  E   
--L--0--0---L--L--0--<>12----|--0----0----0--0--0--0--|
--L--0--0---L--L--0--<>12----|--0----0----0--0--0--0--|
--L--4--4s--6--L--6--<>12----|--0----0----0--0--0--4--|
--L--5--5s--7--L--7----------|--4----4----4--4--4--5--|
--L--5--5s--7--L--7----------|--2----2----2--2--2--5--|
--L--5--5s--7--L--7----------|--2----2----2--2--2--5--|


                        NH                             
  E  E  E   E  E  E     Q       Q    Q    E  E  E  E   
--L--0--0---L--L--0--<>12----|--0----0----0--0--0--0--|
--L--0--0---L--L--0--<>12----|--0----0----0--0--0--0--|
--L--4--4s--6--L--6--<>12----|--0----0----0--0--0--4--|
--L--5--5s--7--L--7----------|--4----4----4--4--4--5--|
--L--5--5s--7--L--7----------|--2----2----2--2--2--5--|
--L--5--5s--7--L--7----------|--2----2----2--2--2--5--|


                        NH      T  T  T       T                
  E  E  E   E  E  E     Q       E  S  S   E   E   E  E  E  E   
--L--0--0---0--L--0--<>12----|-----------------------0-----0--|
--L--0--0---0--L--0--<>12----|--------------------------0--0--|
--L--4--4s--6--L--6--<>12----|---------------11s--9--------9--|
--L--5--5s--7--L--7----------|-----9-11h-12----------------0--|
--L--5--5s--7--L--7----------|-----------------------------9--|
--L--5--5s--7--L--7----------|--9--------------------------0--|


                             T  T  T       T                 
  E  E  Q    Q    E    E     E  S  S   E   E    E  E  E  E   
-----0--0----0----0-------|------------------------0-----0--|
-----0--0----0----0-------|---------------------------0--0--|
--L--9--9----9----9h--11--|---------------14s--11--------9--|
--L--0--0----0----0-------|-----9-11h-12-----------------0--|
--L--9--9----9----9-------|------------------------------9--|
--L--0--0----0----0-------|--9---------------------------0--|


                                  T       T                
  E  E  Q    E    E  E   E     E  S  S E  E   E  E  E  E   
-----0--0----0--------------|----------0------------------|
-----0--0----0--------------|--------------------0--------|
--L--9--9----9h--11---------|-------------9s--7-----6--6--|
--L--0--0----0-------9p--7--|-----7s-9--------------7--7--|
--L--9--9----9--------------|--5--------------------7--7--|
--L--0--0----0--------------|--5--------------------7--7--|


                NH         T         T                                  NH    
  E  E  Q       Q       E  E   E  E  E   E  E  E     E  E  Q    Q       Q     
-------------<>12----|------------0------------0--|-----0--0----0----<>12----|
-------------<>12----|----------------------0--0--|-----0--0----0----<>12----|
--L--6--6----<>12----|---------------9s--7-----2--|--L--2--2----2----<>12----|
--L--7--7------------|-----7s--9---------------0--|--L--0--0----0------------|
--L--7--7------------|--5----------------------0--|--L--0--0----0------------|
--L--7--7------------|--5----------------------0--|--L--0--0----0------------|


  T                     T              T           T     
  E  E  E  E  E   E  E  E     E  E  E  E  E  E     Q     
--------0------------0-----|--------0-----------<>12----|
-----------0---------0-----|--------0-----------<>12----|
-----0---------------0--4--|--------0-----------<>12----|
--4-----------0h--2--------|-----0----------------------|
--2------------------------|--5--------9-----7----------|
--2------------------------|--5-----------7-------------|


  T                     T              T           T     
  E  E  E  E  E   E  E  E     E  E  E  E  E  E     Q     
--------0------------0-----|--------0-----------<>12----|
-----------0---------0-----|--------0-----------<>12----|
-----0---------------0--4--|--------0-----------<>12----|
--4-----------0h--2--------|-----0----------------------|
--2------------------------|--5--------9-----7----------|
--2------------------------|--5-----------7-------------|


  T                     T              T              
  E  E  E  E  E   E  E  E     E  E  E  E  E  E  Q     
--------0------------0-----|--------0-----------0----|
-----------0---------0-----|--------0-----------0----|
-----0---------------0--4--|--------0-----------0----|
--4-----------0h--2--------|-----0-------------------|
--2------------------------|--5--------9-----7-------|
--2------------------------|--5-----------7----------|


                  NH     NH                     NH        
   E  E  E  E     Q      Q       E  E  E  E     H         
------0--------<>12----<>7----|-----0--L-----<>12--------|
---------0-----<>12----<>7----|-----0--L-----<>12--------|
--11--------0--<>12----<>7----|-----0--L-----<>12--------|
------------------------------|--------------------------|
---2--------2-----------------|--2--------2--------------|
---2--------2-----------------|--2--------2--------------|


      T                T              T               
  E   E  E  E  Q    E  E     E  E  E  E  E  E  E  E   
---------0----------------|-----------------0--------|
------------0-------------|--------0--------------0--|
-----11--------0-------6--|-----0-----6--------------|
--------------------------|--------------------------|
--2------x-----2----x-----|--5-----x-----7-----x-----|
--2------x-----2----x-----|--5-----x-----7-----x-----|


     T              T  T                              
  E  E  E  E  E  E  E  E     E  E  E  E  E  E  E  E   
--------0--------x--------|--------0--------0--------|
-----------0-----x--------|-----0-----------------0--|
-----6--------0--------4--|-----------9--------6-----|
--------------------------|--------------------------|
--2-----x-----2-----x-----|--5-----x-----7-----x-----|
--2-----x-----2-----x-----|--5-----x-----7-----x-----|


      T                      T              T               
  E   S   S   S S E  Q    E  E     E  E  E  E  E  E  E  E   
----------------0---------------|-----------------0--------|
------------------0-------------|--------0--------------0--|
-----11h-12p-11------0-------6--|-----0-----6--------------|
--------------------------------|--------------------------|
--2-----------x------2----x-----|--5-----x-----7-----x-----|
--2-----------x------2----x-----|--5-----x-----7-----x-----|


     T                T                              
  E  E  E  E  Q    E  E     E  E  E  E  E  E  E  E   
--------0----------------|--------0--------0--------|
-----------0-------------|-----0-----------------0--|
-----6--------0-------4--|-----------9--------6-----|
-------------------------|--------------------------|
--2-----x-----2----x-----|--5-----x-----7-----x-----|
--2-----x-----2----x-----|--5-----x-----7-----x-----|


                                                    NH    
  E  S S E  E  S S E  Q       E  S S E  E  E  E     Q     
---------------------------|---------------------<>12----|
---------------------------|---------------------<>12----|
---------------------------|---------------------<>12----|
---------------------------|-----------------------------|
--2--x-x-x--2--L-x-x--x----|--2--x-x-x--x-----x----------|
--2--x-x-x--2--L-x-x--x----|--2--x-x-x--x-----x----------|


                                                    NH    
  E  S S E  E  S S E  Q       E  S S E  E  E  E     Q     
---------------------------|---------------------<>12----|
---------------------------|---------------------<>12----|
---------------------------|---------------------<>12----|
---------------------------|-----------------------------|
--2--x-x-x--2--L-x-x--x----|--2--x-x-x--x-----x----------|
--2--x-x-x--2--L-x-x--x----|--2--x-x-x--x-----x----------|


                                                    NH    
  E  S S E  E  S S E  Q       E  S S E  E  E  E     Q     
---------------------------|---------------------<>12----|
---------------------------|---------------------<>12----|
---------------------------|---------------------<>12----|
---------------------------|-----------------------------|
--2--x-x-x--2--L-x-x--x----|--2--x-x-x--x-----x----------|
--2--x-x-x--2--L-x-x--x----|--2--x-x-x--x-----x----------|


                                                    NH                        
  E  S S E  E  S S E  Q       E  S S E  E  E  E     Q       W                 
---------------------------|---------------------<>12----|--L----------------|
---------------------------|---------------------<>12----|--L----------------|
---------------------------|---------------------<>12----|--L----------------|
---------------------------|-----------------------------|-------------------|
--2--x-x-x--2--L-x-x--x----|--2--x-x-x--x-----x----------|-------------------|
--2--x-x-x--2--L-x-x--x----|--2--x-x-x--x-----x----------|-------------------|


-------------------||
-------------------||
-------------------||
-------------------||
-------------------||
-------------------||




Duration Legend
---------------
W - whole
H - half
Q - quarter
E - 8th
S - 16th
T - 32nd
X - 64th
. - note dotted
|-n-|  - n-tuplets


Tablature Legend
----------------
L - tied note
x - dead note
g - grace note
(n) - ghost note
> - accentuded note
NH - natural harmonic
AH - artificial harmonic
TH - tapped harmonic
SH - semi harmonic
PH - pitch harmonic
h - hammer on
p - pull off
b - bend
br - bendRelease
pb - preBend
pbr - preBendRelease
brb - bendReleaseBend
\n/ - tremolo bar dip
\n - tremolo bar dive
-/n - tremolo bar Release up
/n\ - tremolo bar inverted dip
/n - tremolo bar return
-\n - tremolo bar Release down
S - shift slide
s - legato slide
/ -  slide into from below or out of upwards
\ -  slide into from above or out of downwards
~ - vibrato
W - wide vibrato
tr - trill
TP - tremolo picking
T - tapping
S - slap
P - pop
< - fade in
^ - brush up
v - brush down
Tap to rate this tab
# A B C D E F G H I J K L M N O P Q R S T U V W X Y Z