Song name
# A B C D E F G H I J K L M N O P Q R S T U V W X Y Z

Andy Timmons - Falling Down tab

-----------------------------------------------------------------------------
			     Falling Down-Andy Timmons
-----------------------------------------------------------------------------
Tabbed by:


           Fm7      Ebmaj   Dm7

e|---------------------------------------------------------------------------|
B|---------------------------------------------------------------------------|
G|---13-----12----10-------------8-10--10/12------12---------12--------------|
D|---13-----13----10------8/10---------------10------12-13---13--------------|
A|-----------------------------------------------------------11--------------|
E|---13-----11----10---------------------------------------------------------|

e|------------------------------------------------------------------------------|
B|------------------------------------------------------------------------------|
G|-------8 10/12-------13-----12-----10----------8-10-10/12---------------------|
D|--8/10--------------13-----13-----10-----8/10---------------------------------|
A|------------------------------------------------------------------------------|
E|--------------------13-----11-----10------------------------------------------|

e|---------------------------------------------------------------------------|
B|---------------------------------------------------------------------------|
G|---8/10/8--------------8---------------------------------------------------|
D|---8/10/8--------8-10----10------------------------------------------------|
A|-----------8/10------------------------------------------------------------|
E|---------------------------------------------------------------------------|

************************************

| /   slide up
| \   slide down
| h   hammer-on
| p   pull-off
| ~   vibrato
| +   harmonic
| x   Mute note
| b   Bend
| pb  Pre-bend
| br  Bend release
| pbr Pre-bend release
| brb Bend release bend

************************************
Tap to rate this tab
 
# A B C D E F G H I J K L M N O P Q R S T U V W X Y Z