Song name
# A B C D E F G H I J K L M N O P Q R S T U V W X Y Z

Angels And Airwaves - Secret Crowds tab

-------------------------------------------------------------------------------
		       Secret Crowds - Angels And Airwaves
-------------------------------------------------------------------------------
                                   I - Empire
-------------------------------------------------------------------------------
                             Tabbed By Trent Wellman
-------------------------------------------------------------------------------
                                    11-2-2007
-------------------------------------------------------------------------------


Hey Guys. I noticed a few tabs are done already, but I wanted to take the time and give 
a little something more complex to go by. This is my VERY FIRST tab, so let me know how 
did! If you like it enough, I just might do the ENTIRE album.

Email: masterchief9615@gmail.com

Tuning: Standard (E.A.D.G.B.e)

| /  slide up
| \  slide down
| h  hammer-on
| p  pull-off
| ~  vibrato
| +  harmonic
| x  Mute note

Beginning Riffs

This Is The Very Beginning Riff.
  *Note*   This has a fading between each note. If you listen to the song,
           You will understand. (Each note fade's In).

00:00 - 00:26                                   "Tom" - If I Had My Own World
e|--------------------------------------------------------------------------|
B|--------------------------------------------------------------------------|
G|-12---11--9---7---14---12---11---9---12---11--9---7---14---12--11---9-----|
D|--------------------------------------------------------------------------|
A|-10---9---7---5---12---10---9----7---10---9---7---5---12---10---9---7-----|
E|--------------------------------------------------------------------------|
                                       I'd Build You An Empire
e|--------------------------------------------------------------------------|
B|--------------------------------------------------------------------------|
G|-12---11--9---7---14---12---11---9---12---11--9---7---14---12--11---9-----|
D|--------------------------------------------------------------------------|
A|-10---9---7---5---12---10---9----7---10---9---7---5---12---10---9---7-----|
E|--------------------------------------------------------------------------|

This Is Right Before The "Intro"
  *Note*   This Requires Two Guitars To Play It Right.

00:26 - 00:31

Guitar 1
e|------------------------------------|
B|------------------------------------|
G|------------------------------------|
D|-11-\-4-/-7-------------------------|
A|------------------------------------|
E|-9-\-2-/-5---(Let Ring Threw Out)---|

Guitar 2
e|------------------------------------|
B|------------------------------------|
G|-12---11--9---7---14---12---11---9--|
D|------------------------------------|
A|-10---9---7---5---12---10---9----7--|
E|------------------------------------|

Intro: (This is wrong is most other versions)

00:31 - 00:57
e|----------------------------------------------------------|
B|----------------------------------------------------------|
G|----------------------------------------------------------|
D|--11-\-4-/-7--777--66-6-/-7----11-\-4-/-7--777--66-6-/-7--|
A|----------------------------------------------------------|
E|--9--\-2-/-5--555--44-4-/-5-----9-\-2-/-5--555--44-4-/-5--|

e|----------------------------------------------------------|
B|----------------------------------------------------------|
G|----------------------------------------------------------|
D|--11-\-4-/-7--777--66-6-/-7----11-\-4-/-7--777--66-6-/-7--|
A|----------------------------------------------------------|
E|--9--\-2-/-5--555--44-4-/-5-----9-\-2-/-5--555--44-4-/-5--|

e|----------------------------------------------------------|
B|----------------------------------------------------------|
G|----------------------------------------------------------|
D|--11-\-4-/-7--777--66-6-/-7----11-\-4-/-7--777--66-6-/-7--|
A|----------------------------------------------------------|
E|--9--\-2-/-5--555--44-4-/-5-----9-\-2-/-5--555--44-4-/-5--|

e|----------------------------------------------------------|
B|----------------------------------------------------------|
G|----------------------------------------------------------|
D|--11-\-4-/-7--777--66-6-/-7----11-\-4-/-7--777--66-6-/-7--|
A|----------------------------------------------------------|
E|--9--\-2-/-5--555--44-4-/-5-----9-\-2-/-5--555--44-4-/-5--|


Verse 1: This Part Is Just Bass, But I Play This Just Because I Get Board.

00:57 - 01:47

   If I had my own world, I'd fill it with wealth and desire.
e|-----------------------------------------------------------|
B|-----------------------------------------------------------|
G|-----------------------------------------------------------|
D|-----------------------------------------------------------|
A|----5--------------------------------------7---------------|
E|-----------------------------------------------------------|
   A glorious past to admire. And voices of kids out walking dogs
e|-----------------------------------------------------------|
B|-----------------------------------------------------------|
G|-----------------------------------------------------------|
D|-----------------------------------------------------------|
A|------------5-----------------------------11---------------|
E|-----------------------------------------------------------|
   birds, planes, cleanest cars.
e|------------------------------|
B|------------------------------|
G|------------------------------|
D|------------------------------|
A|------------------------------|
E|------------------------------|
   If I had my own world, I'd love it for all that's inside it.
e|-----------------------------------------------------------|
B|-----------------------------------------------------------|
G|-----------------------------------------------------------|
D|-----------------------------------------------------------|
A|----5--------------------------------------7---------------|
E|-----------------------------------------------------------|
   There'd be no more wars, death or riots.
e|-----------------------------------------------------------|
B|-----------------------------------------------------------|
G|-----------------------------------------------------------|
D|-----------------------------------------------------------|
A|---------------------5-------------------------------------|
E|-----------------------------------------------------------|
   there'd be no more police packed parking lots, guns, bombs sounding off.
e|-----------------------------------------------------------|
B|-----------------------------------------------------------|
G|-----------------------------------------------------------|
D|-----------------------------------------------------------|
A|---------------------11------------------------------------|
E|-----------------------------------------------------------|
   If I had my own world,
e|-----------------------------------------------------------|
B|-----------------------------------------------------------|
G|--14-14-14-14-----14-14-14-14--------14-14-14-14-----------|
D|-----------------------------------------------------------|
A|--12-12-12-12-----12-12-12-12--------12-12-12-12-----------|
E|-----------------------------------------------------------|
   I'd build you an empire
e|-----------------------------------------------------------|
B|-----------------------------------------------------------|
G|--12-12-12-12-----12-12-12-12--------12-12-12-12-----------|
D|-----------------------------------------------------------|
A|--10-10-10-10-----10-10-10-10--------10-10-10-10-----------|
E|-----------------------------------------------------------|
   From here to the far lands.
e|-----------------------------------------------------------|
B|-----------------------------------------------------------|
G|--11-11-11-11-----11-11-11-11--------11-11-11-11-----------|
D|-----------------------------------------------------------|
A|--9--9--9--9------9--9--9--9---------9--9--9--9------------|
E|-----------------------------------------------------------|
   To spread love like violence.
e|-----------------------------------------------------------|
B|-----------------------------------------------------------|
G|--12-12-12-12-----12-12-12-12--------12-12-12-12-----------|
D|-----------------------------------------------------------|
A|--10-10-10-10-----10-10-10-10--------10-10-10-10-----------|
E|-----------------------------------------------------------|
   If I had my own world,
e|-----------------------------------------------------------|
B|-----------------------------------------------------------|
G|--7--7--7--7------7--7--7--7---------7--7--7--7------------|
D|-----------------------------------------------------------|
A|--5--5--5--5------5--5--5--5---------5--5--5--5------------|
E|-----------------------------------------------------------|
   I'd build you an empire
e|-----------------------------------------------------------|
B|-----------------------------------------------------------|
G|--9--9--9--9------9--9--9--9---------9--9--9--9------------|
D|-----------------------------------------------------------|
A|--7--7--7--7------7--7--7--7---------7--7--7--7------------|
E|-----------------------------------------------------------|
   From here to the far lands.
e|-----------------------------------------------------------|
B|-----------------------------------------------------------|
G|--11-11-11-11-----11-11-11-11--------11-11-11-11-----------|
D|-----------------------------------------------------------|
A|--9--9--9--9------9--9--9--9---------9--9--9--9------------|
E|-----------------------------------------------------------|
   To spread love like violence.
e|-----------------------------------------------------------|
B|-----------------------------------------------------------|
G|--12-12-12-12-----12-12-12-12--------12-12-12-12-----------|
D|-----------------------------------------------------------|
A|--10-10-10-10-----10-10-10-10--------10-10-10-10-----------|
E|-----------------------------------------------------------|

Chorus:

01:47 - 02:12

   Let      me      feel      you
e|-------------------------------------|
B|-------------------------------------|
G|-------------------------------------|
D|-----7-7-7-7-7-7-7-7-7-7-7-7-7-7-7-7-|
A|-----5-5-5-5-5-5-5-5-5-5-5-5-5-5-5-5-|
E|-------------------------------------|

   Carry     you       higher.
e|-------------------------------------|
B|-------------------------------------|
G|-------------------------------------|
D|-------------------------------------|
A|--7-7-7-7-7-7-7-7----5-5-5-5-5-5-5-5-|
E|--5-5-5-5-5-5-5-5----3-3-3-3-3-3-3-3-|

   watch     our     words     spread
e|-------------------------------------|
B|-------------------------------------|
G|-------------------------------------|
D|-----7-7-7-7-7-7-7-7-7-7-7-7-7-7-7-7-|
A|-----5-5-5-5-5-5-5-5-5-5-5-5-5-5-5-5-|
E|-------------------------------------|

    Hope     Like      Fire
e|-------------------------------------|
B|-------------------------------------|
G|-------------------------------------|
D|-------------------------------------|
A|--7-7-7-7-7-7-7-7----5-5-5-5-5-5-5-5-|
E|--5-5-5-5-5-5-5-5----3-3-3-3-3-3-3-3-|

   Secret         Crowds         Rise
e|-------------------------------------|
B|-------------------------------------|
G|-------------------------------------|
D|-----7-7-7-7-7-7-7-7-7-7-7-7-7-7-7-7-|
A|-----5-5-5-5-5-5-5-5-5-5-5-5-5-5-5-5-|
E|-------------------------------------|

    Up        And      Gather
e|-------------------------------------|
B|-------------------------------------|
G|-------------------------------------|
D|-------------------------------------|
A|--7-7-7-7-7-7-7-7----5-5-5-5-5-5-5-5-|
E|--5-5-5-5-5-5-5-5----3-3-3-3-3-3-3-3-|

    Hear       Your        Voices
e|-------------------------------------|
B|-------------------------------------|
G|-------------------------------------|
D|-----7-7-7-7-7-7-7-7-7-7-7-7-7-7-7-7-|
A|-----5-5-5-5-5-5-5-5-5-5-5-5-5-5-5-5-|
E|-------------------------------------|

    Sing     Back     Louder
e|-------------------------------------|
B|-------------------------------------|
G|-------------------------------------|
D|-------------------------------------|
A|--7-7-7-7-7-7-7-7----5-5-5-5-5-5-5-5-|
E|--5-5-5-5-5-5-5-5----3-3-3-3-3-3-3-3-|

Intro Riff:

02:12 - 02:25

e|----------------------------------------------------------|
B|----------------------------------------------------------|
G|----------------------------------------------------------|
D|--11-\-4-/-7--777--66-6-/-7----11-\-4-/-7--777--66-6-/-7--|
A|----------------------------------------------------------|
E|--9--\-2-/-5--555--44-4-/-5-----9-\-2-/-5--555--44-4-/-5--|

e|----------------------------------------------------------|
B|----------------------------------------------------------|
G|----------------------------------------------------------|
D|--11-\-4-/-7--777--66-6-/-7----11-\-4-/-7--777--66-6-/-7--|
A|----------------------------------------------------------|
E|--9--\-2-/-5--555--44-4-/-5-----9-\-2-/-5--555--44-4-/-5--|


Verse 2

02:25 - 03:14


   If I had my own world, i'd show you the life that's inside it.
e|-----------------------------------------------------------|
B|-----------------------------------------------------------|
G|-----------------------------------------------------------|
D|-----------------------------------------------------------|
A|----5--------------------------------------7---------------|
E|-----------------------------------------------------------|
   the way that it glows when you find it.
e|-------------------------------------------|
B|-------------------------------------------|
G|-------------------------------------------|
D|-------------------------------------------|
A|-------------------5-----------------------|
E|-------------------------------------------|
  and the way it survives with it's families, friends or it's enemy's.
e|------------------------------------------------------------------|
B|------------------------------------------------------------------|
G|------------------------------------------------------------------|
D|------------------------------------------------------------------|
A|------------------11----------------------------------------------|
E|------------------------------------------------------------------|
   Let's make this the new world. I swear you can go if you'd want to,
e|-----------------------------------------------------------------|
B|-----------------------------------------------------------------|
G|-----------------------------------------------------------------|
D|-----------------------------------------------------------------|
A|----5--------------------------------------------7---------------|
E|-----------------------------------------------------------------|
   I know that you have that with in you.
e|-----------------------------------------------------------|
B|-----------------------------------------------------------|
G|-----------------------------------------------------------|
D|-----------------------------------------------------------|
A|---------------------5-------------------------------------|
E|-----------------------------------------------------------|
   investing the first clean and useable, god's greatest miracle.
e|-----------------------------------------------------------|
B|-----------------------------------------------------------|
G|-----------------------------------------------------------|
D|-----------------------------------------------------------|
A|---------------------11------------------------------------|
E|-----------------------------------------------------------|
   If I had my own world,
e|-----------------------------------------------------------|
B|-----------------------------------------------------------|
G|--14-14-14-14-----14-14-14-14--------14-14-14-14-----------|
D|-----------------------------------------------------------|
A|--12-12-12-12-----12-12-12-12--------12-12-12-12-----------|
E|-----------------------------------------------------------|
   I'd build you an empire
e|-----------------------------------------------------------|
B|-----------------------------------------------------------|
G|--12-12-12-12-----12-12-12-12--------12-12-12-12-----------|
D|-----------------------------------------------------------|
A|--10-10-10-10-----10-10-10-10--------10-10-10-10-----------|
E|-----------------------------------------------------------|

   From here to the far lands.
e|-----------------------------------------------------------|
B|-----------------------------------------------------------|
G|--11-11-11-11-----11-11-11-11--------11-11-11-11-----------|
D|-----------------------------------------------------------|
A|--9--9--9--9------9--9--9--9---------9--9--9--9------------|
E|-----------------------------------------------------------|
   To spread love like violence.
e|-----------------------------------------------------------|
B|-----------------------------------------------------------|
G|--12-12-12-12-----12-12-12-12--------12-12-12-12-----------|
D|-----------------------------------------------------------|
A|--10-10-10-10-----10-10-10-10--------10-10-10-10-----------|
E|-----------------------------------------------------------|

   If I had my own world,
e|-----------------------------------------------------------|
B|-----------------------------------------------------------|
G|--7--7--7--7------7--7--7--7---------7--7--7--7------------|
D|-----------------------------------------------------------|
A|--5--5--5--5------5--5--5--5---------5--5--5--5------------|
E|-----------------------------------------------------------|
   I'd build you an empire
e|-----------------------------------------------------------|
B|-----------------------------------------------------------|
G|--9--9--9--9------9--9--9--9---------9--9--9--9------------|
D|-----------------------------------------------------------|
A|--7--7--7--7------7--7--7--7---------7--7--7--7------------|
E|-----------------------------------------------------------|
   From here to the far lands.
e|-----------------------------------------------------------|
B|-----------------------------------------------------------|
G|--11-11-11-11-----11-11-11-11--------11-11-11-11-----------|
D|-----------------------------------------------------------|
A|--9--9--9--9------9--9--9--9---------9--9--9--9------------|
E|-----------------------------------------------------------|
   To spread love like violence.
e|-----------------------------------------------------------|
B|-----------------------------------------------------------|
G|--12-12-12-12-----12-12-12-12--------12-12-12-12-----------|
D|-----------------------------------------------------------|
A|--10-10-10-10-----10-10-10-10--------10-10-10-10-----------|
E|-----------------------------------------------------------|

Chorus:

03:14 - 03:39

   Let      me      feel      you
e|-------------------------------------|
B|-------------------------------------|
G|-------------------------------------|
D|-----7-7-7-7-7-7-7-7-7-7-7-7-7-7-7-7-|
A|-----5-5-5-5-5-5-5-5-5-5-5-5-5-5-5-5-|
E|-------------------------------------|

   Carry     you       higher.
e|-------------------------------------|
B|-------------------------------------|
G|-------------------------------------|
D|-------------------------------------|
A|--7-7-7-7-7-7-7-7----5-5-5-5-5-5-5-5-|
E|--5-5-5-5-5-5-5-5----3-3-3-3-3-3-3-3-|

   watch     our     words     spread
e|-------------------------------------|
B|-------------------------------------|
G|-------------------------------------|
D|-----7-7-7-7-7-7-7-7-7-7-7-7-7-7-7-7-|
A|-----5-5-5-5-5-5-5-5-5-5-5-5-5-5-5-5-|
E|-------------------------------------|

    Hope     Like      Fire
e|-------------------------------------|
B|-------------------------------------|
G|-------------------------------------|
D|-------------------------------------|
A|--7-7-7-7-7-7-7-7----5-5-5-5-5-5-5-5-|
E|--5-5-5-5-5-5-5-5----3-3-3-3-3-3-3-3-|

   Secret         Crowds         Rise
e|-------------------------------------|
B|-------------------------------------|
G|-------------------------------------|
D|-----7-7-7-7-7-7-7-7-7-7-7-7-7-7-7-7-|
A|-----5-5-5-5-5-5-5-5-5-5-5-5-5-5-5-5-|
E|-------------------------------------|

    Up        And      Gather
e|-------------------------------------|
B|-------------------------------------|
G|-------------------------------------|
D|-------------------------------------|
A|--7-7-7-7-7-7-7-7----5-5-5-5-5-5-5-5-|
E|--5-5-5-5-5-5-5-5----3-3-3-3-3-3-3-3-|

    Hear       Your        Voices
e|-------------------------------------|
B|-------------------------------------|
G|-------------------------------------|
D|-----7-7-7-7-7-7-7-7-7-7-7-7-7-7-7-7-|
A|-----5-5-5-5-5-5-5-5-5-5-5-5-5-5-5-5-|
E|-------------------------------------|

    Sing     Back     Louder
e|-------------------------------------|
B|-------------------------------------|
G|-------------------------------------|
D|-------------------------------------|
A|--7-7-7-7-7-7-7-7----5-5-5-5-5-5-5-5-|
E|--5-5-5-5-5-5-5-5----3-3-3-3-3-3-3-3-|

03:39 - 04:04

   Let      me      feel      you
e|-------------------------------------|
B|-------------------------------------|
G|-------------------------------------|
D|-------------------------------------|
A|-------------------------------------|
E|-------------------------------------|

   Carry     you       higher.
e|-------------------------------------|
B|-------------------------------------|
G|-------------------------------------|
D|-------------------------------------|
A|-------------------------------------|
E|-------------------------------------|

   Watch     our     words     spread
e|-------------------------------------|
B|-------------------------------------|
G|-------------------------------------|
D|-------------------------------------|
A|-------------------------------------|
E|-------------------------------------|

    Hope     Like      Fire
e|-------------------------------------|
B|-------------------------------------|
G|-------------------------------------|
D|-------------------------------------|
A|-------------------------------------|
E|-------------------------------------|

   Secret         Crowds         Rise
e|-------------------------------------|
B|-------------------------------------|
G|-------------------------------------|
D|-------------------------------------|
A|-------------------------------------|
E|-------------------------------------|

    Up        And      Gather
e|-------------------------------------|
B|-------------------------------------|
G|-------------------------------------|
D|-------------------------------------|
A|-------------------------------------|
E|-------------------------------------|

    Hear       Your        Voices
e|-------------------------------------|
B|-------------------------------------|
G|-------------------------------------|
D|-------------------------------------|
A|-------------------------------------|
E|-------------------------------------|

    Sing     Back     Louder
e|-------------------------------------|
B|-------------------------------------|
G|-------------------------------------|
D|-------------------------------------|
A|-------------------------------------|
E|-------------------------------------|

04:04 - 04:29

   Let      me      feel      you
e|-------------------------------------|
B|-------------------------------------|
G|-----7-7-7-7-7-7-7-7-7-7-7-7-7-7-7-7-|
D|-------------------------------------|
A|-----5-5-5-5-5-5-5-5-5-5-5-5-5-5-5-5-|
E|-------------------------------------|

   Carry     you       higher.
e|-------------------------------------|
B|-------------------------------------|
G|-------------------------------------|
D|--7-7-7-7-7-7-7-7----5-5-5-5-5-5-5-5-|
A|-------------------------------------|
E|--5-5-5-5-5-5-5-5----3-3-3-3-3-3-3-3-|

   Watch     our     words     spread
e|-------------------------------------|
B|-------------------------------------|
G|-----7-7-7-7-7-7-7-7-7-7-7-7-7-7-7-7-|
D|-------------------------------------|
A|-----5-5-5-5-5-5-5-5-5-5-5-5-5-5-5-5-|
E|-------------------------------------|

    Hope     Like      Fire
e|-------------------------------------|
B|-------------------------------------|
G|-------------------------------------|
D|--7-7-7-7-7-7-7-7----5-5-5-5-5-5-5-5-|
A|-------------------------------------|
E|--5-5-5-5-5-5-5-5----3-3-3-3-3-3-3-3-|

   Secret         Crowds         Rise
e|-------------------------------------|
B|-------------------------------------|
G|-----7-7-7-7-7-7-7-7-7-7-7-7-7-7-7-7-|
D|-------------------------------------|
A|-----5-5-5-5-5-5-5-5-5-5-5-5-5-5-5-5-|
E|-------------------------------------|

    Up        And      Gather
e|-------------------------------------|
B|-------------------------------------|
G|-------------------------------------|
D|--7-7-7-7-7-7-7-7----5-5-5-5-5-5-5-5-|
A|-------------------------------------|
E|--5-5-5-5-5-5-5-5----3-3-3-3-3-3-3-3-|

    Hear       Your        Voices
e|-------------------------------------|
B|-------------------------------------|
G|-----7-7-7-7-7-7-7-7-7-7-7-7-7-7-7-7-|
D|-------------------------------------|
A|-----5-5-5-5-5-5-5-5-5-5-5-5-5-5-5-5-|
E|-------------------------------------|

    Sing     Back     Louder
e|-------------------------------------|
B|-------------------------------------|
G|-------------------------------------|
D|--7-7-7-7-7-7-7-7----5-5-5-5-5-5-5-5-|
A|-------------------------------------|
E|--5-5-5-5-5-5-5-5----3-3-3-3-3-3-3-3-|

04:29 - 04:54

   Let      me      feel      you
e|-------------------------------------|
B|-------------------------------------|
G|-----7-7-7-7-7-7-7-7-7-7-7-7-7-7-7-7-|
D|-------------------------------------|
A|-----5-5-5-5-5-5-5-5-5-5-5-5-5-5-5-5-|
E|-------------------------------------|

   Carry     you       higher.
e|-------------------------------------|
B|-------------------------------------|
G|-------------------------------------|
D|--7-7-7-7-7-7-7-7----5-5-5-5-5-5-5-5-|
A|-------------------------------------|
E|--5-5-5-5-5-5-5-5----3-3-3-3-3-3-3-3-|

   Watch     our     words     spread
e|-------------------------------------|
B|-------------------------------------|
G|-----7-7-7-7-7-7-7-7-7-7-7-7-7-7-7-7-|
D|-------------------------------------|
A|-----5-5-5-5-5-5-5-5-5-5-5-5-5-5-5-5-|
E|-------------------------------------|

    Hope     Like      Fire
e|-------------------------------------|
B|-------------------------------------|
G|-------------------------------------|
D|--7-7-7-7-7-7-7-7----5-5-5-5-5-5-5-5-|
A|-------------------------------------|
E|--5-5-5-5-5-5-5-5----3-3-3-3-3-3-3-3-|

   Secret         Crowds         Rise
e|-------------------------------------|
B|-------------------------------------|
G|-----7-7-7-7-7-7-7-7-7-7-7-7-7-7-7-7-|
D|-------------------------------------|
A|-----5-5-5-5-5-5-5-5-5-5-5-5-5-5-5-5-|
E|-------------------------------------|

    Up        And      Gather
e|-------------------------------------|
B|-------------------------------------|
G|-------------------------------------|
D|--7-7-7-7-7-7-7-7----5-5-5-5-5-5-5-5-|
A|-------------------------------------|
E|--5-5-5-5-5-5-5-5----3-3-3-3-3-3-3-3-|

    Hear       Your        Voices
e|-------------------------------------|
B|-------------------------------------|
G|-----7-7-7-7-7-7-7-7-7-7-7-7-7-7-7-7-|
D|-------------------------------------|
A|-----5-5-5-5-5-5-5-5-5-5-5-5-5-5-5-5-|
E|-------------------------------------|

    Sing     Back     Louder
e|-------------------------------------|
B|-------------------------------------|
G|-------------------------------------|
D|--7-7-7-7-7-7-7-7----5-5-5-5-5-5-5-5-|
A|-------------------------------------|
E|--5-5-5-5-5-5-5-5----3-3-3-3-3-3-3-3-|


Ending

04:54 - 05:03

e|-------------------------------------|
B|-------------------------------------|
G|--7----------------------------------|
D|-------------------------------------|
A|--5----------------------------------|
E|-------------------------------------|
Tap to rate this tab
 
# A B C D E F G H I J K L M N O P Q R S T U V W X Y Z