Song name
# A B C D E F G H I J K L M N O P Q R S T U V W X Y Z

Angels And Airwaves - Surrender tab

my first tab...this is an awesome song from my favorite band of all time AVA
.....PM
Intro/verse
0.29
e----------|
b----------|
g-44444444-|
d-44444444-|
a-22222222-|
E----------|
  ........
chorus
something like this 0.43
e------------------------|
b---12-14-12-16-12-11-12-|
g-11---------------------|
d------------------------|
a------------------------|
E------------------------|

Bridge/verse
1.10 figure out the strumming yourself
e-----------------|
b-----------------|
g-4---------------|
d-4---2----6----2-|
a-2---2----6----2-|
E-----0----4----0-|

1.38 - 1.45 no guitar
1.45-2.11 intro/verse byt when he sings 'you feel like you hit a wall' you add the 
second part and play that 2 times.

e----------------------------------------------------|
b----------------------------------------------------|
g--44444444-----------|-66666666---------------------|
d--44444444-----------|-66666666-66666666-22222222---|
a--22222222-----------|-44444444-66666666-22222222-2-| part
e---------------------|----------44444444-00000000---|
  ..........            ...........................
first part

2.11-2.39 chorus
2.39-3.07 bridge/verse

3.07 - 3.25 no guitar
3.25 til the end you play bridge/verse

hope you enjoyed!
Tap to rate this tab
 
# A B C D E F G H I J K L M N O P Q R S T U V W X Y Z