Angels And Airwaves - Soul Survivor tab

X = Palm Mute.
/ = let the note/chord ring.
\ = stop the note/chord from ringin.


0:07
This Part is the piano/keyboard .
But i like to play it on guitar .
so this opening part is -

e---------------------------------------|
b---------------------------------- <---| Note this is Rhythm Guitar.
g---------------------------------------|
d-99---99----44---44--------------------| keep doing this until you notice the
a-99---99----44---44--------------------| change .
e-77---77----22---22--------------------|

repeat when tom goes - 'I am a ghost'

0:45

Guitar 1 / Lead .

e-------------------------------------|
b---0-7-0-7-0-------------------------| Just Play around With Them
g-------------------------------------| Notes .
d-------------------------------------| (play with The song)
a-------------------------------------| To help you figure it out.
e-------------------------------------|

0:59

e-----------------------------------------------------|
b-------0-7-0-7-0--------0-7-0-7-0--------------------|
g-----------------------------------------------------|
d--999------------999---------------999---------------| repeat this until
a--999------------999---------------999---------------| 'like stars at night'
e--777------------777---------------777---------------| 1:15


'Falling Fast asleep' 1:17

e--------------------------------------------------------|
b---------0-7-0-7-0---------0-7-0-7-0--------------------| Repeat this until
g--------------------------------------------------------| the chorus.
d--xxx9/-------------xxx9/-------------------------------| 'so sadly'
a--xxx9/-------------xxx9/-------------------------------|
e--xxx7/-------------xxx7/-------------------------------|


Chorus 'So sadly , Soul Survivors'  1:51

e--------------------------------------------------|
b--------------------------------------------------| Play along with the song
g--------------------------------------------------| to help figure it out.
d--9-9-9-9--7-7-7-7--9-9-9-9--11-11-11-11--9-9-9-9-| i just strum down
a--9-9-9-9--7-7-7-7--9-9-9-9--11-11-11-11--9-9-9-9-| for this part.
e--7-7-7-7--5-5-5-5--7-7-7-7--9--9--9--9---7-7-7-7-|

'Help im losing'

 when this part comes . repeat the same notes/chords .
bt strum faster.
play along with the song , to help you figure it out .

just play around with
d-9--
a-9--
e-7--
that is the main chord in this song.

Any Corrections email me .
Eithan-wwe-cena@hotmail.co.uk
chek me out on youtube for guitar covers .
youtube - Hopo182
i do guitar cover's .
ive done a cover of this .
so go chek it out.
Thanks.
p.s - this is my first tab .
Tap to rate this tab
 
# A B C D E F G H I J K L M N O P Q R S T U V W X Y Z