Song name
# A B C D E F G H I J K L M N O P Q R S T U V W X Y Z

Angels And Airwaves - Everythings Magic tab

Everything's Magic

Intro:

e|-3-------1-------0-------1-------1-|
B|---1---1---1---1---1---1---1---1---|
G|-----2-------2-------2-------2-----|
D|-----------------------------------|
A|-----------------------------------|
E|-----------------------------------|

Verse:

e|-3-----3-1-----1-0--------1-------1-|
B|---1-------1-------1----1---1---1---|
G|-----2-------2--------2-------2-----|
D|------------------------------------|
A|------------------------------------|
E|------------------------------------|

Chorus:

-------------------|
-10----10----------|
-9-----7-----------|  (x16)
-7-----7-----------|
-0-----0-----------|
-------------------|
Verse:


e|-3-----3-1-----1-0--------1-------1-|
B|---1-------1-------1----1---1---1---|
G|-----2-------2--------2-------2-----|
D|------------------------------------|
A|------------------------------------|
E|------------------------------------|

Chorus:

-------------------|
-10----10----------|
-9-----7-----------|  (x16)
-7-----7-----------|
-0-----0-----------|
-------------------|
Bridge:


e:-------|
B:--10---|
G:---9---|
D:---7---|
A:---0---|
E:-------|

Chorus:

-------------------|
-10----10----------|
-9-----7-----------|  (x16)
-7-----7-----------|
-0-----0-----------|
-------------------|
Tap to rate this tab
# A B C D E F G H I J K L M N O P Q R S T U V W X Y Z