Guitaretab - guitar tabs
Song name
# A B C D E F G H I J K L M N O P Q R S T U V W X Y Z

Angels And Airwaves - Machine tab

this song is a bonus track off the album in the UK.

Intro

Swell (hit with volume off an gently turn guitar up)
e||-----------------|
B||-----------------|
G||---4-------------|
D||---x-------------|
A||---2-------------|
E||-----------------|

then
Guitar 1
e||-----------------|
B||-----------------|
G||---4-------------|
D||---x-------------|
A||---2-------------|
E||-----------------|

Guitar 2
e||--------------------------|
B||--------------------------|
G||---4-4-4-4-3-6-6-8-8------|
D||--------------------------|
A||--------------------------|
E||--------------------------|

then
Heavy Section
e||-----------------------------|
B||-----------------------------|
G||-3-3/4-4-4-4-4-4-4-3-8-------|
D||-x-x-x-x-x-x-x-x-x-x-x-------|
A||-1-1/2-2-2-2-2-2-2-1-6-------|
E||-----------------------------|
[ Tab from: http://www.guitaretab.com/a/angels-and-airwaves/144291.html ]
During this section there is also a delay effected guitar which sounds like a banjo lol, 
havent figured this out yet but if u have post it into the comments section.

then
verse:
guitar 1
e||-----------------|
B||-----------------|
G||--3/4-4----------|
D||--x/x-x----------|
A||--1/2-2----------|
E||-----------------|

Guitar 2
e||--------------------------------------------------|
B||--------------------------------------------------|
G||---4/6-4-4---4--4-6-8-8---8--8/9-6-6---8--8/9-6-6-|
D||---x/x-x-x---x--x/x-x-x---x--x/x-x-x---x--x/x-x-x-|
A||---2/4-2-2---2--2/4-6-6---6--6/7-4-4---6--6/7-4-4-|
E||--------------------------------------------------|

then
Pre Chrous:
e||-----------------------|
B||-----------------------|
G||---4~--3~--8~--6~------|
D||---x~--x~--x~--x~------|
A||---2~--1~--6~--4~------|
E||-----------------------|

Heavy Bit

Verse

Pre Chorus

Heavy bit

Mid 8:
This is just the intro guitar 2

Heavy Bit

the end is that banjo sounding delayed guitar part that i havent figured out yet if u 
u know wot to do....

Thats it......................


Craig.....Spawn3323
Related for Machine tab
Machine chords by Angels And Airwaves