Song name
# A B C D E F G H I J K L M N O P Q R S T U V W X Y Z

Angels And Airwaves - Inertia tab

Hey Everyone I created a Video For this Song Check it out 
http://www.youtube.com/watch?v=NPSJ5LdUymk


Intro (Delay)
(0:00-1:14)
E--------------------|
B--------------------|
G--------------------|
D--7-7-7-7-7--7-7--7-|
A--------------------|
E--------------------|

Pre-Verse(Distortion)
(1:15-1:23)
E-------------------|
B-------------------|
G-------------------| x2
D--6--8--9--11--12--|
A--6--8--9--11--12--|
E--4--6--7--9---10--|

Verse 1
(1:24-1:43)
E--12-13-12-10-9----|
B----------------10-| x3
G-------------------|
D-------------------|
A-------------------|
E-------------------|

Chorus
(1:44-1:57)
E-------------------|
B-------------------|
G-------------------| x1
D--7----------------|
A--7----------------|
E--5----------------|

Pre-Verse (Distortion)
(1:58-2:06)
E-------------------|
B-------------------|
G-------------------| x2
D--6--8--9--11--12--|
A--6--8--9--11--12--|
E--4--6--7--9---10--|

Verse 2
(2:07-2:26)
E--12-13-12-10-9----|
B----------------10-| x3
G-------------------|
D-------------------|
A-------------------|
E-------------------|

Chorus
(2:27-2:53)
E-------------------|
B-------------------|
G-------------------| x1
D--7----------------|
A--7----------------|
E--5----------------|

Bridge (Delay)
(2:54-3:50)
E-------------------|
B-------------------|
G-------------------|
D--7-7-7-7-7-7------|
A---0-0-0-0-0-0-----|
E-------------------|

Outro
(3:51-4:28)
E--12-13-12-10-9----|
B----------------10-| x8
G-------------------|
D-------------------|
A-------------------|
E-------------------|
Tap to rate this tab
# A B C D E F G H I J K L M N O P Q R S T U V W X Y Z