Song name
# A B C D E F G H I J K L M N O P Q R S T U V W X Y Z

Angus And Julia Stone - Santa Monica Dream chords

Highlighted       Show chord diagrams
Hi, This is a great song and I hope I've done it justice...
It sounds right when I play it, but it is my 1st tab so apologies for any mistakes. It's 
a standard tuning but there's a capo on 5th fret (I know this for sure, I saw them live 
I know it's fingerpicked, the pattern's at the bottom.

F          G               C
Goodbye to my Santa Monica dream

F                   G                    C
Fifteen kids in the backyard drinking wine

F           G              C
You tell me stories of the sea

F       G               C
And the ones you left behind

F              G             C
Goodbye to the roses on your street

F              G                 C
Goodbye to the paintings on your wall

F              C                    C
Goodbye to the children we'll never meet

F       C              C
And the ones we left behind

F       C              C
And the ones we left behind

    C                 Am7
I'm somewhere, you're somewhere

    C               Am7
I'm nowhere, you're nowhere

       C        G        C
You're somewhere, you're somewhere

        F       G      C
I could go there but I don't


Rob's in the kitchen making pizza
Somewhere down in Battery Park
I'm singing songs about the future
Wondering where you are
I could call you on the telephone
But do I really want to know?
You're making love now to the lady down the road
No I don't, I don't want to know

I'm somewhere, you're somewhere
I'm nowhere, you're nowhere
You're somewhere, you're somewhere
I could go there but I don;t

Goodbye to my Santa Monica dream
Fifteen kids in the backyard drinking wine
You will tell me stories of the sea
And the ones you left behind
And the ones we left behind


Here's the fingerpicking pattern for the verses...


e|----------------------------------------------|
B|----------------------------0-----0-----0----0|
G|---0----0-------0-----0-----------------------|
D|-2----2-----2h3-----5-----2-----2-----2-----2-|
A|----3-----3-------3-----3-----3-----3-----3---|
E|----------------------------------------------|

Chorus Fingerpicking


e|---------------------------------------------------|
B|---------------------------------------------------|
G|---0----0-----0-----0-----0-----0-----0-----0-----0|
D|-2----2-----2-----2-----2-----2-----2-----2-----2--|
A|----3-----3-----3-----3-----0-----0-----0-----0----|
E|---------------------------------------------------|

e|------------------------------------------------|
B|------------------------------------------------|
G|-----0-----0-----0-----0-----0-----0-----0-----0|
D|---2-----2-----2-----2-----2-----2-----2-----2--|
A|-3-----3-----3-----3-----0-----0-----0-----0----|
E|------------------------------------------------|

e|------------------------------------------------|
B|------------------------------------------------|
G|-----0-----0-----0-----0-----0-----0-----0-----0|
D|---2-----2-----3-----3-----2-----2-----2-----2--|
A|-3-----3-----3-----3-----0-----0-----0-----0----|
E|------------------------------------------------|

e|-----------------------------------|
B|-----------------0-----0-----0----0|
G|-----0-----0-----------------------|
D|-2h3-----5-----2-----2-----2-----2-|
A|-------3-----3-----3-----3-----3---|
E|-----------------------------------|

Thanks, comments would be appreciated :)
Tap to rate this tab
 
# A B C D E F G H I J K L M N O P Q R S T U V W X Y Z