Angus And Julia Stone - Santa Monica Dream tab

-------------------------------------------------------------------------------
			     SANTA MONICA DREAM - Angus And Julia Stone
-------------------------------------------------------------------------------


Capo = 5th Fret (Not Relative)

Intro.

F, G, C

e|--------------------------------|----------------|----------------|
B|--------------------------------|---6-------6----|---6-------6----|
G|----0-------0--0--0--0-----0----|----------------|----------------|
D|-------8----------------------7-|------7-------7-|------7-------7-|  x4
A|--0---0------8--7--7--------7---|-8---8-------8--|-8---8-------8--|
E|--------------------------------|----------------|----------------|

Verse - Same as Intro Riff - x9


Chorus
    C                 Am7
I'm somewhere, you're somewhere
    C               Am7
I'm nowhere, you're nowhere
       C        G        C
You're somewhere, you're somewhere
        F       G      C
I could go there but I don't


Verse 2 - Same as Intro Riff - x8

Chorus - x1

Bridge - Same as Intro Riff - x4

Verse 3 - Same as Intro Riff - x4


Outro. - Gradually slow down in final bar
|--------------------------------|-------------------|
|--------------------------------|---6-------6-------|
|----0-------0--0--0--0-----0----|-------------------|
|-------8----------------------7-|------7-------7----|
|--0---0------8--7--7--------7---|-8---8-------8---8-|
|--------------------------------|-------------------|
Tap to rate this tab
 
# A B C D E F G H I J K L M N O P Q R S T U V W X Y Z