Song name
# A B C D E F G H I J K L M N O P Q R S T U V W X Y Z

Angus And Julia Stone - Jewels And Gold tab

jewels and gold – by Angus and Julia Stone

capo on first fret

verse and intro

|Em| |A| |A|

Fills
the fills are played during the second bar of A (except when he sings)

The fills are played in order

fill 1             fill 2         fill 3

e|---------------|--------------|-----------------------|
B|---------------|--------------|-----------------------|
G|---------------|------0h2p0---|-2-2-2p0---------------|
D|------0-2---0--|--0h2-------2-|---------2-------------|
A|--0-3----------|--------------|-----------------------|
E|---------------|--------------|-----------------------|

fill 4
e|--3p2p0----0------------------------------------------|
B|--------3--3------------------------------------------|
G|------------------------------------------------------|
D|------------------------------------------------------|
A|------------------------------------------------------|
E|------------------------------------------------------|

Chorus
lead in |A| |Asus4 A2|

.the cir-cus came…
     Emsus4  A     A2

then packed up their things
     Emsus4          A      A2
Tap to rate this tab
 
# A B C D E F G H I J K L M N O P Q R S T U V W X Y Z