Song name
# A B C D E F G H I J K L M N O P Q R S T U V W X Y Z

Annie Mall - August tab

www.anniemall.net
www.facebook.com/anniemallband

Verse:
Em9

--------------------------------|
--------------------------------|
--------------------------------|
-------------5------------------|
-7-7---5-6-7-------5-5----------|
-----0---------5-7-----7-5------|

Pre-Chorus
G, A, Bm
D, Bm

Chorus:
Em, G, A, Bm, D, Bm

---------------------|
---------------------|
---------------------|
---------------------|
-7---5-7----5--7---5-|
---7------7------7---|
Tap to rate this tab
 
# A B C D E F G H I J K L M N O P Q R S T U V W X Y Z