Song name
# A B C D E F G H I J K L M N O P Q R S T U V W X Y Z

Anthrax - Belly Of The Beast Live tab

Help us improve GuitareTab! Take a short survey!
#----------------------------------PLEASE NOTE---------------------------------#
#This file is the author's own work and represents their interpretation of the #
#song. You may only use this file for private study, scholarship, or research. #
#------------------------------------------------------------------------------#

BELLY OF THE BEAST (Live)
As recorded by Anthrax
(From the 1991 EP ATTACK OF THE KILLER B'S)

Transcribed by Mike Sheehan
	

Words and Music by Anthrax

Gtr I (E A D G B E) - 'Scott Ian'
Gtr II (E A D G B E) - 'Dan Spitz'

 Intro
  Q.=158
                    N.C.
 12/8
  Gtr I
  Wx12              E E E E E E E E E E E E
|-----------------|-------------------------|
|-----------------|-------------------------|
|-----------------|-------------------------|
|-----------------|-------------------------|
|-----------------|-x-x-x-x-x-x-x-x-x-x-x-x-|
|-----------------|-x-x-x-x-x-x-x-x-x-x-x-x-|


  E E E E E E E E E E E E   E E E E E E E E E E E E
|-------------------------|--------------------------|
|-------------------------|--------------------------|
|-------------------------|--------------------------|
|-------------------------|--------------------------|
|-x-x-x-x-x-x-x-x-x-x-x-x-|-x-x-x-x-x-x-x-x-x-x-x-x--|
|-x-x-x-x-x-x-x-x-x-x-x-x-|-x-x-x-x-x-x-x-x-x-x-x-x--|


                              (G)
  E E E E E E E E E E E E     E E E E E E E E E E E E
|-------------------------||--------------------------|
|-------------------------||o-------------------------|
|-----------------------0-||--4p0-0-5p0-0-6p0-0-7p0-0-|
|-------------------------||--------------------------|
|-x-x-x-x-x-x-x-x-x-x-x---||o-------------------------|
|-x-x-x-x-x-x-x-x-x-x-x---||--------------------------|


  E E E E E E Q    E  +Q   E
|------------------------------||
|-----------------------------o||
|-6-0-0-5-0-0-4--/12-(12)--0---||
|------------------------------||
|-----------------------------o||
|------------------------------||


    Gtr I
                                               ~~~~~~~
    E E E E E E E E E E E E   E E E E E E Q    E  +Q   E
||--------------------------|-----------------------------||
||o-------------------------|----------------------------o||
||--4p0-0-5p0-0-6p0-0-7p0-0-|-6-0-0-5-0-0-4--/12-(12)--0--||
||--------------------------|-----------------------------||
||o-------------------------|----------------------------o||
||--------------------------|-----------------------------||
|
|   Gtr II
|                                              ~~~~~~~
|   E E E E E E E E E E E E   E E E E E E Q    E  +Q   E
||--------------------------|-----------------------------||
||o-------------------------|----------------------------o||
||--4p0-0-5p0-0-6p0-0-7p0-0-|-6-0-0-5-0-0-4--/16-(16)--0--||
||--------------------------|-----------------------------||
||o-------------------------|----------------------------o||
||--------------------------|-----------------------------||


      E E E E E E E E E E E E
|-||---------------------------|
|-||o--------------------------|
|-||--4p0-5p0-6p0-7p0-6p0-5p0--|
|-||---------------------------|
|-||o--------------------------|
|-||---------------------------|
|
|     E E E E E E E E E E E E
|-||---------------------------|
|-||o--------------------------|
|-||--4p0-5p0-6p0-7p0-6p0-5p0--|
|-||---------------------------|
|-||o--------------------------|
|-||---------------------------|


                   ~~~~~~~
  E E E E E E Q    E  +Q   E  3x
|-----------------------------||
|----------------------------o||
|-4-0-5-0-6-0-7--/12-(12)--0--||
|--------------------------5--||
|----------------------------o||
|-----------------------------||
|
|                  ~~~~~~~
| E E E E E E Q    E  +Q   E  3x
|-----------------------------||
|----------------------------o||
|-4-0-5-0-6-0-7--/16-(16)--0--||
|--------------------------5--||
|----------------------------o||
|-----------------------------||


                                             ~~~~~~~
  E E E E E E E E E E E E   E E E E E E Q    E  +Q.
|-------------------------|----------------------------|
|-------------------------|----------------------------|
|-4p0-5p0-6p0-7p0-6p0-5p0-|-4p0-5p0-6p0-7--/12-(12)----|
|-------------------------|----------------------------|
|-------------------------|----------------------------|
|-------------------------|----------------------------|
|
|                                            ~~~~~~~
| E E E E E E E E E E E E   E E E E E E Q    E  +Q.
|-------------------------|----------------------------|
|-------------------------|----------------------------|
|-4p0-5p0-6p0-7p0-6p0-5p0-|-4p0-5p0-6p0-7--/16-(16)----|
|-------------------------|----------------------------|
|-------------------------|----------------------------|
|-------------------------|----------------------------|


  (C)
  Gtrs I, II
   E  E  E Q   E  E E  E  E E  E
|--------------------------------|
|--------------------------------|
|----------9-----10p9----12p9----|
|-10-10-10----10------10------10-|
|--------------------------------|
|--------------------------------|


   E  E  E Q   E  E E  E  Q  E    E  E  E Q   E  E E  E  E E  E
|------------------------------|---------------------------------|
|------------------------------|---------------------------------|
|----------9-----10p9----------|----------9-----10p9----12p9-----|
|-10-10-10----10------10-10--9-|-10-10-10----10------10------10--|
|------------------------------|---------------------------------|
|------------------------------|---------------------------------|


  Gtr I
   E  E  E Q   E  E E  E  Q  E
|------------------------------|
|------------------------------|
|----------9-----10p9--------0-|
|-10-10-10----10------10-10----|
|------------------------------|
|------------------------------|
|
| Gtr II
|  E  E  E Q   E  E E  E  Q  E
|------------------------------|
|------------------------------|
|----------9-----10p9--------0-|
|-10-10-10----10------10-10----|
|------------------------------|
|------------------------------|


  (G)
                                             ~~~~~~~
  E E E E E E E E E E E E   E E E E E E Q    E  +Q   E
|-------------------------|-----------------------------|
|-------------------------|-----------------------------|
|-4p0-5p0-6p0-7p0-6p0-5p0-|-4p0-5p0-6p0-7--/12-(12)--0--|
|-------------------------|-----------------------------|
|-------------------------|-----------------------------|
|-------------------------|-----------------------------|
|
|                                            ~~~~~~~
| E E E E E E E E E E E E   E E E E E E Q    E  +Q   E
|-------------------------|-----------------------------|
|-------------------------|-----------------------------|
|-4p0-5p0-6p0-7p0-6p0-5p0-|-4p0-5p0-6p0-7--/16-(16)--0--|
|-------------------------|-----------------------------|
|-------------------------|-----------------------------|
|-------------------------|-----------------------------|


  E E E E E E E E E E E E
|-------------------------|
|-------------------------|
|-4p0-5p0-6p0-7p0-6p0-5p0-|
|-------------------------|
|-------------------------|
|-------------------------|
|
| E E E E E E E E E E E E
|-------------------------|
|-------------------------|
|-4p0-5p0-6p0-7p0-6p0-5p0-|
|-------------------------|
|-------------------------|
|-------------------------|


                               (Bb)
                   ~~~~~~~
  E E E E E E Q    E  +Q   E   E E E Q  E E E E  E E E
|----------------------------|--------------------------|
|----------------------------|--------------------------|
|-4p0-5p0-6p0-7--/12-(12)--0-|-------7----8p7---10p7----|
|----------------------------|-8-8-8----8-----8------8--|
|----------------------------|--------------------------|
|----------------------------|--------------------------|
|
|                  ~~~~~~~
| E E E E E E Q    E  +Q   E   E E E Q  E E E E  E E E
|----------------------------|--------------------------|
|----------------------------|--------------------------|
|-4p0-5p0-6p0-7--/16-(16)--0-|-------7----8p7---10p7----|
|----------------------------|-8-8-8----8-----8------8--|
|----------------------------|--------------------------|
|----------------------------|--------------------------|


                          (F)
  Gtrs I, II
  E E E Q  E E E E Q.     E E E Q  E E E E  E E E   E E E Q  E E E E Q  E
|-----------------------|-------------------------|------------------------||
|-----------------------|-------------------------|------------------------||
|-------7----8p7--------|-------------------------|------------------------||
|-8-8-8----8-----8-8----|-------7----8p7---10p7---|-------7----8p7---------||
|-----------------------|-8-8-8----8-----8------8-|-8-8-8----8-----8-8-----||
|-----------------------|-------------------------|------------------------||


    Bb      A         (E)                         Bb      A
                      PM--------------------|
    H.      H.        E E E E E E E E E E E E  3x H.      H.
||------------------|--------------------------||---------------|
||o-----------------|-------------------------o||---------------|
||------------------|--------------------------||---------------|
||--8-------7-------|--------------------------||-8-------7-----|
||o-5-------4-------|-------------------------o||-5-------4-----|
||--6-------5-------|-0-0-0-0-0-0-0-0-0-0-0-0--||-6-------5-----|


  (A)
    PM----------|             PM--------|
  E E E E E E E E E E E E     E E E E E E E E E E E E  3x
|-------------------------||---------------------------||
|-------------------------||o-------------------------o||
|-------------------------||---------------------------||
|-7---------------7-7-7---||----------------7-7-7-7----||
|-0-0-0-0-0-0-0-0-0-0-0-0-||o-0-0-0-0-0-0-0-0-0-0-0-0-o||
|-------------------------||---------------------------||


 Verse
  (E)                                                 (G)
  PM----------------------------------------------|
  E E E E E E E E E E E E   E E E E E E E E E E E E   E E E E E E E E E E E E
|-------------------------|-------------------------|--------------------------|
|-------------------------|-------------------------|--------------------------|
|-------------------------|-------------------------|--------------------------|
|-------------------------|-------------------------|--------------------------|
|-------------------------|-------------------------|--------------------------|
|-0-0-0-0-0-0-0-0-0-0-0-0-|-0-0-0-0-0-0-0-0-0-0-0-0-|-3-3-3-3-3-3-6p3-6p3-6h7--|


  E E E E E E E E E E E E   E E E E E E E E E E E E   E E E E E E E E E E E E
|-------------------------|-------------------------|--------------------------|
|-------------------------|-------------------------|--------------------------|
|-------------------------|-------------------------|--------------------------|
|-------------------------|-------------------------|--------------------------|
|-------------------------|-------------------------|--------------------------|
|-3-3-3-3-3-3-6p3-6p3-6h7-|-3-3-3-3-3-3-6p3-6p3-6h7-|-3-3-3-3-3-3-6p3-6p3-6h7--|


  (A)
  PM--------|               PM--------|               PM--------|
  E E E E E E E E E E E E   E E E E E E E E E E E E   E E E E E E E E E E E E
|-------------------------|-------------------------|--------------------------|
|-------------------------|-------------------------|--------------------------|
|-------------------------|-------------------------|--------------------------|
|-------------7---7---7---|-------------7---7---7---|-------------7---7---7----|
|-0-0-0-0-0-0-0-0-0-0-0-0-|-0-0-0-0-0-0-0-0-0-0-0-0-|-0-0-0-0-0-0-0-0-0-0-0-0--|
|-------------------------|-------------------------|--------------------------|


                            (E)
  PM--------|               PM----------------------------------------------|
  E E E E E E E E E E E E   E E E E E E E E E E E E   E E E E E E E E E E E E
|-------------------------|-------------------------|--------------------------|
|-------------------------|-------------------------|--------------------------|
|-------------------------|-------------------------|--------------------------|
|-------8-8-8-7-7-7-------|-------------------------|--------------------------|
|-0-0-0-0-0-0-0-0-0-0-0-0-|-------------------------|--------------------------|
|-------------------------|-0-0-0-0-0-0-0-0-0-0-0-0-|-0-0-0-0-0-0-0-0-0-0-0-0--|


  (G)
  E E E E E E E E E E E E   E E E E E E E E E E E E   E E E E E E E E E E E E
|-------------------------|-------------------------|--------------------------|
|-------------------------|-------------------------|--------------------------|
|-------------------------|-------------------------|--------------------------|
|-------------------------|-------------------------|--------------------------|
|-------------------------|-------------------------|--------------------------|
|-3-3-3-3-3-3-6p3-6p3-6h7-|-3-3-3-3-3-3-6p3-6p3-6h7-|-3-3-3-3-3-3-6p3-6p3-6h7--|


                            (A)
                            PM--------|               PM--------|
  E E E E E E E E E E E E   E E E E E E E E E E E E   E E E E E E E E E E E E
|-------------------------|-------------------------|--------------------------|
|-------------------------|-------------------------|--------------------------|
|-------------------------|-------------------------|--------------------------|
|-------------------------|-7-----------7---7---7-7-|-7-----------7-7-7-7-7-7--|
|-------------------------|-0-0-0-0-0-0-0-0-0-0-0-0-|-0-0-0-0-0-0-0-0-0-0-0-0--|
|-3-3-3-3-3-3-6p3-6p3-6h7-|-------------------------|--------------------------|


                                                      (E)
  PM--------|               PM--------|               PM--------------------|
  E E E E E E E E E E E E   E E E E E E E E E E E E   E E E E E E E E E E E E
|-------------------------|-------------------------|--------------------------|
|-------------------------|-------------------------|--------------------------|
|-------------------------|-------------------------|--------------------------|
|-7-----------7---7---7-7-|-7-----------7-7-7-7-7-7-|--------------------------|
|-0-0-0-0-0-0-0-0-0-0-0-0-|-0-0-0-0-0-0-0-0-0-0-0-0-|--------------------------|
|-------------------------|-------------------------|-0-0-0-0-0-0-0-0-0-0-0-0--|


                            (G)
  PM--------------------|
  E E E E E E E E E E E E   E E E E E E E E E E E E   E E E E E E E E E E E E
|-------------------------|-------------------------|--------------------------|
|-------------------------|-------------------------|--------------------------|
|-------------------------|-------------------------|--------------------------|
|-------------------------|-------------------------|--------------------------|
|-------------------------|-------------------------|--------------------------|
|-0-0-0-0-0-0-0-0-0-0-0-0-|-3-3-3-3-3-3-6p3-6p3-6h7-|-3-3-3-3-3-3-6p3-6p3-6h7--|


  E E E E E E E E E E E E   E E E E E E E E E E E E
|-------------------------|-------------------------||
|-------------------------|-------------------------||
|-------------------------|-------------------------||
|-------------------------|-------------------------||
|-------------------------|-------------------------||
|-3-3-3-3-3-3-6p3-6p3-6h7-|-3-3-3-3-3-3-6p3-6p3-6h7-||


 Pre Chorus
  $
  (E)      A5G5        C5Bb5
  Q.   +E  E  E Q  E E E  E
|---------------------------|
|---------------------------|
|---------------------------|
|----------------------5-\3-|
|----------7-\5-5--x-x-3-\1-|
|-0----(0)-5-\3-3--x-x------|


         G5F5              E5     A5G5        C5Bb5
  Q  E E E  E Q  E E E E   Q.   E E  E Q  E E E  E
|------------------------|--------------------------|
|------------------------|--------------------------|
|------------------------|--------------------------|
|-3--x-x-----------------|--------------------5-\3--|
|-1--x-x-5-\3-3--x-x-x-x-|-2----x-7-\5-5--x-x-3-\1--|
|--------3-\1-1--x-x-x-x-|-0----x-5-\3-3--x-x-------|


         G5F5             E5     A5G5        C5Bb5         G5F5
  Q  E E E  E Q  E Q.     Q.   E E  E Q  E E E  E   Q  E E E  E Q  E E E E
|-----------------------|-------------------------|-------------------------|
|-----------------------|-------------------------|-------------------------|
|-----------------------|-------------------------|-------------------------|
|-3--x-x----------------|--------------------5-\3-|-3--x-x------------------|
|-1--x-x-5-\3-3---------|-2----x-7-\5-5--x-x-3-\1-|-1--x-x-5-\3-3--x-x-x-x--|
|--------3-\1-1---------|-0----x-5-\3-3--x-x------|--------3-\1-1--x-x-x-x--|


  E5     A5G5        C5Bb5         G5F5      G5
  Q.   E E  E Q  E E E  E   Q  E E E  E Q.   Q.
|-------------------------|-----------------------||
|-------------------------|-----------------------||
|-------------------------|-----------------------||
|--------------------5-\3-|-3--x-x----------------||
|-2----x-7-\5-5--x-x-3-\1-|-1--x-x-5-\3-3----5----||
|-0----x-5-\3-3--x-x------|--------3-\1-1----3----||


 Chorus
  G5
  Gtr I
  H.          +Q.   Q.
|------------------------|
|------------------------|
|------------------------|
|-5-----------(5)--------|
|-5-----------(5)--------|
|-3-----------(3)--------|
|
| Gtr II
| Q.   +Q   E  Q.   Q.
|------------------------|
|------------------------|
|------------------------|
|------------------------|
|-----------3s=5----3----|
|-3----(3)---------------|


    H.           +Q.    Q.     H.          +Q.   Q.
|----------------------------|-------------------------|
|----------------------------|-------------------------|
|-/12-----------(12)\--------|-------------------------|
|-/12-----------(12)\--------|-5-----------(5)---------|
|-/10-----------(10)\--------|-5-----------(5)---------|
|----------------------------|-3-----------(3)---------|
|
|   Q.   +Q   E   Q.    Q.     Q.   +Q   E  Q.   Q.
|----------------------------|-------------------------|
|----------------------------|-------------------------|
|----------------------------|-------------------------|
|----------------------------|-------------------------|
|-------------3s==5-----3----|-----------3s=5----3-----|
|---3----(3)-----------------|-3----(3)----------------|


                      (E)
   H.           +Q.     Q.
|----------------------------|
|----------------------------|
|-12-----------(12)----------|
|-12-----------(12)----------|
|-10-----------(10)----------|
|---------------------/12\---|
|
|  Q.   +Q   E   Q.     Q.
|----------------------------|
|----------------------------|
|----------------------------|
|----------------------------|
|------------3s==5------3----|
|--3----(3)------------------|


  PM--------------------------------------------------|
  E E E E E E E  E E E  E E   E E E E E E E  E E E  E E
|---------------------------|----------------------------|
|---------------------------|----------------------------|
|---------------------------|----------------------------|
|---------------------------|----------------------------|
|---------------------------|----------------------------|
|-0-0-0-0-0-0-0--0-0-0--0-0-|-0-0-0-0-0-0-0--0-0-0--0-0--|
|
| PM------|                   PM------|
| E E E E E E Q.     Q.       E E E E E E Q.     Q.
|---------------------------|----------------------------|
|---------------------------|----------------------------|
|---------------------------|----------------------------|
|---------------------------|----------------------------|
|-----------3s5------3------|-----------3s5------3-------|
|-0-0-0-0-0-----------------|-0-0-0-0-0------------------|


  (G)
  PM-----------------------------------------------------
  E E E E E E E  E E E  E E   E E E E E E E  E E E  E E
|---------------------------|---------------------------|
|---------------------------|---------------------------|
|---------------------------|---------------------------|
|---------------------------|---------------------------|
|---------------------------|---------------------------|
|-3-3-3-3-3-3-3--3-3-3--3-3-|-3-3-3-3-3-3-3--3-3-3--3-3-|
|
| PM------|                   PM------|
| E E E E E E Q.     Q.       E E E E E E Q.     Q.
|---------------------------|---------------------------|
|---------------------------|---------------------------|
|---------------------------|---------------------------|
|---------------------------|---------------------------|
|-----------3s5------3------|-----------3s5------3------|
|-3-3-3-3-3-----------------|-3-3-3-3-3-----------------|


  (E)
 -------------------------|
  E E E E E E E  E E E  E E
|----------------------------|
|----------------------------|
|----------------------------|
|----------------------------|
|----------------------------|
|-0-0-0-0-0-0-0--0-0-0--0-0--|
|
| PM------|
| E E E E E E Q.     Q.
|----------------------------|
|----------------------------|
|----------------------------|
|----------------------------|
|-----------3s5------3-------|
|-0-0-0-0-0------------------|


                              Bb      A         (E)
  PM----------------------|                     PM--------------------|
  E E E E E E E  E E E  E E   H.      H.        E E E E E E E E E E E E
|---------------------------|-----------------|--------------------------|
|---------------------------|-----------------|--------------------------|
|---------------------------|-----------------|--------------------------|
|---------------------------|-8-------7-------|--------------------------|
|---------------------------|-5-------4-------|--------------------------|
|-0-0-0-0-0-0-0--0-0-0--0-0-|-6-------5-------|-0-0-0-0-0-0-0-0-0-0-0-0--|
|
| PM------|                                     PM--------------------|
| E E E E E E Q.     Q.       H.      H.        E E E E E E E E E E E E
|---------------------------|-----------------|--------------------------|
|---------------------------|-----------------|--------------------------|
|---------------------------|-----------------|--------------------------|
|---------------------------|-8-------7-------|--------------------------|
|-----------3s5------3------|-5-------4-------|--------------------------|
|-0-0-0-0-0-----------------|-6-------5-------|-0-0-0-0-0-0-0-0-0-0-0-0--|


                                                      To Coda
    Bb      A         (E)                         Bb      A
    Gtrs I, II
                      PM--------------------|
    H.      H.        E E E E E E E E E E E E     H.      H.
||------------------|--------------------------||----------------||
||o-----------------|-------------------------o||----------------||
||------------------|--------------------------||----------------||
||--8-------7-------|--------------------------||-8-------7------||
||o-5-------4-------|-------------------------o||-5-------4------||
||--6-------5-------|-0-0-0-0-0-0-0-0-0-0-0-0--||-6-------5------||


 Verse
  (A)
  PM--------|               PM--------|               PM--------|
  E E E E E E E E E E E E   E E E E E E E E E E E E   E E E E E E E E E E E E
|-------------------------|-------------------------|--------------------------|
|-------------------------|-------------------------|--------------------------|
|-------------------------|-------------------------|--------------------------|
|-------------7---7---7-7-|-7-----------7---7---7-7-|-7-----------7---7---7-7--|
|-0-0-0-0-0-0-0-0-0-0-0-0-|-0-0-0-0-0-0-0-0-0-0-0-0-|-0-0-0-0-0-0-0-0-0-0-0-0--|
|-------------------------|-------------------------|--------------------------|


                            (E)
  PM--------|               PM----------------------------------------------|
  E E E E E E E E E E E E   E E E E E E E E E E E E   E E E E E E E E E E E E
|-------------------------|-------------------------|--------------------------|
|-------------------------|-------------------------|--------------------------|
|-------------------------|-------------------------|--------------------------|
|-7-----------7---7---7-7-|-------------------------|--------------------------|
|-0-0-0-0-0-0-0-0-0-0-0-0-|-------------------------|--------------------------|
|-------------------------|-0-0-0-0-0-0-0-0-0-0-0-0-|-0-0-0-0-0-0-0-0-0-0-0-0--|


  (G)
  E E E E E E E E E E E E   E E E E E E E E E E E E   E E E E E E E E E E E E
|-------------------------|-------------------------|--------------------------|
|-------------------------|-------------------------|--------------------------|
|-------------------------|-------------------------|--------------------------|
|-------------------------|-------------------------|--------------------------|
|-------------------------|-------------------------|--------------------------|
|-3-3-3-3-3-3-6p3-6p3-6h7-|-3-3-3-3-3-3-6p3-6p3-6h7-|-3-3-3-3-3-3-6p3-6p3-6h7--|


                            (A)
                            PM--------|               PM--------|
  E E E E E E E E E E E E   E E E E E E E E E E E E   E E E E E E E E E E E E
|-------------------------|-------------------------|--------------------------|
|-------------------------|-------------------------|--------------------------|
|-------------------------|-------------------------|--------------------------|
|-------------------------|-7-----------7---7---7-7-|-7-----------7-7-7-7-7-7--|
|-------------------------|-0-0-0-0-0-0-0-0-0-0-0-0-|-0-0-0-0-0-0-0-0-0-0-0-0--|
|-3-3-3-3-3-3-6p3-6p3-6h7-|-------------------------|--------------------------|


                                                      (E)
  PM--------|               PM--------|               PM--------------------|
  E E E E E E E E E E E E   E E E E E E E E E E E E   E E E E E E E E E E E E
|-------------------------|-------------------------|--------------------------|
|-------------------------|-------------------------|--------------------------|
|-------------------------|-------------------------|--------------------------|
|-7-----------7-7-7-7-7-7-|-------------7-7-7-7-7-7-|--------------------------|
|-0-0-0-0-0-0-0-0-0-0-0-0-|-0-0-0-0-0-0-0-0-0-0-0-0-|--------------------------|
|-------------------------|-------------------------|-0-0-0-0-0-0-0-0-0-0-0-0--|


                            (G)
  PM--------------------|
  E E E E E E E E E E E E   E E E E E E E E E E E E   E E E E E E E E E E E E
|-------------------------|-------------------------|--------------------------|
|-------------------------|-------------------------|--------------------------|
|-------------------------|-------------------------|--------------------------|
|-------------------------|-------------------------|--------------------------|
|-------------------------|-------------------------|--------------------------|
|-0-0-0-0-0-0-0-0-0-0-0-0-|-3-3-3-3-3-3-6p3-6p3-6h7-|-3-3-3-3-3-3-6p3-6p3-6h7--|


                                      D.S. al Coda
  E E E E E E E E E E E E   E E E E E E E E E E E E
|-------------------------|-------------------------||
|-------------------------|-------------------------||
|-------------------------|-------------------------||
|-------------------------|-------------------------||
|-------------------------|-------------------------||
|-3-3-3-3-3-3-6p3-6p3-6h7-|-3-3-3-3-3-3-6p3-6p3-6h7-||


    &
    N.C.
    PM-----------------------
    E E E E E E E E E E E E
||--------------------------|
||o-------------------------|
||--------------------------|
||--------------------------|
||o-0---1---2---3---2---1---|
||----0---0---0---0---0---0-|


                              Gtr I
 ---------------------------------------------------|
  E E E E E E E E E E E E  4x E E E E E E E E E E E E
|--------------------------||-------------------------||
|-------------------------o||-------------------------||
|--------------------------||-------------------------||
|--------------------------||-------------------------||
|-------------------------o||-0---1---2---3---2---1---||
|-5-0-0-0-0-0-0-0-0-0-0-0--||---0---0---0---0---0---0-||


 Guitar Solo
  Gtr I
  PM----------------------------------------------------------------
  E  E E  E  E  E  E  E E   E  E   E     E E E  E E E E  E E E E E
|-------------------------------------|----------------------------|
|-------------------------------------|----------------------------|
|-------------------------------------|----------------------------|
|-------------------------------------|----------------------------|
|-------------------------------------|--0---1----2---3----2---1---|
|-5--0-0--0--0--0--0--0-0---0--0---0--|----0----0---0----0---0---0-|
|
| Gtr II
| ~~~~~~~~~~~~~~~~~~~~~~~~~~~~~~~~~~~~~~~~~~~~~~~~~~~~~~~~~~~~~~~~~~
| Q.     +Q     E  Q.      +Q     +E     Q.     Q.    H.
|-------------------------------------|----------------------------|
|-------------------------------------|----------------------------|
|-9------(9)s==12-12------(12)---(12)s|=11s====10s====9------------|
|-------------------------------------|----------------------------|
|-------------------------------------|----------------------------|
|-------------------------------------|----------------------------|


 --------------------------------|
  E  E E  E  E  E  E  E E   E  E   E
|---------------------------------------|
|---------------------------------------|
|---------------------------------------|
|---------------------------------------|
|---------------------------------------|
|-5--0-0--0--0--0--0--0-0---0--0---0----|
|
|~~~~~~~~~~~~~~~~~~~~~~~~~~~~~~~~~~~~~~
| Q.     +Q     E  Q.      +Q     +E
|---------------------------------------|
|---------------------------------------|
|-9------(9)s==14-14------(14)---(14)s==|
|---------------------------------------|
|---------------------------------------|
|---------------------------------------|


   PM----------------------------------------------------------------
   E E E  E E E  E  E E E E E   E  E E  E  E  E  E  E E   E  E   E
|-----------------------------|-------------------------------------|
|-----------------------------|-------------------------------------|
|-----------------------------|-------------------------------------|
|-----------------------------|-------------------------------------|
|--0---1----2----3----2---1---|-------------------------------------|
|----0----0---0-----0---0---0-|-5--0-0--0--0--0--0--0-0---0--0---0--|
|
|  ~~~~~~~~~~~~~~~~~~~~~~~~~~~~~~~~~~~~~~~~~~~~~~~~~~~~~~~~~~~~~~~~~~
|  Q.     Q.     H.             Q.     +Q     E  Q.      +Q     +E
|-----------------------------|-------------------------------------|
|-----------------------------|-------------------------------------|
|-13s====12s====11------------|-9------(9)s==16-16------(16)---(16)s|
|-----------------------------|-------------------------------------|
|-----------------------------|-------------------------------------|
|-----------------------------|-------------------------------------|


 ----------------------------|
   E E E  E E E  E E E  E  E  E
|--------------------------------|
|--------------------------------|
|--------------------------------|
|--------------------------------|
|--0---1----2----3---2-----1-----|
|----0----0---0----0----0-----0--|
|
|~~~~~~~~~~~~~~~~~~~~~~~~~~~~~~~
|  Q.     Q.     E Q   +Q     E
|--------------------------------|
|--------------------------------|
|-15s====14s====13s9---(9)s==15--|
|--------------------------------|
|--------------------------------|
|--------------------------------|


                                  Bb           A
   PM-------------------------|
   E  E E E  E E  E  E E E  E E   H.            H.
|-------------------------------|-----------------------------|
|-------------------------------|-----------------------------|
|-------------------------------|-----------------------------|
|-------------------------------|-8-------------7-------------|
|-------------------------------|-5-------------4-------------|
|--5--0-0-0--0-0--0--0-0-0--0-0-|-6-------------5-------------|
|
|  ~~~            ~~~                           ~~~~~~~~~~
|  Q.     Q.      Q.     Q.       Q.   +Q    E  Q.    +Q    E
|-------------------------------|-----------------------------|
|-16-------------19-------------|-----------------------------|
|-------------------------------|-9----(9)s=12-12----(12)--12-|
|-------------------------------|-----------------------------|
|-------------------------------|-----------------------------|
|-------------------------------|-----------------------------|


  (E)
   PM------------------------------------|
   E  E  E  E  E  E  E    E  E      E  E E
|-------------------------------------------|
|-------------------------------------------|
|-------------------------------------------|
|-------------------------------------------|
|-------------------------------------------|
|--0--0--0--0--0--0--0----0--0------0--0-0--|
|
|                            ~~~~~~~~~~
|  E  E  E  E  E  E  Q       E     +Q    E
|-------------------------------------------|
|-------------------15b17---15b17-(15)------|
|-14p12----12-------------------------------|
|-------14----14-12-------------------------|
|-------------------------------------------|
|-------------------------------------------|


  Bb           A
  H.            H.
|--------------------------------|
|--------------------------------|
|--------------------------------|
|-8-------------7----------------|
|-5-------------4----------------|
|-6-------------5----------------|
|
|               ~~~~~~~~~~
| Q.   +Q    E  Q.    +Q    +E
|--------------------------------|
|--------------------------------|
|-9----(9)s=14-14----(14)--(14)\-|
|--------------------------------|
|--------------------------------|
|--------------------------------|


  (E)                           Bb           A
  PM------------------------|
  E E E E E E  E  E E  E  E E   H.            H.
|-----------------------------|---------------------|
|-----------------------------|---------------------|
|-----------------------------|---------------------|
|-----------------------------|-8-------------7-----|
|-----------------------------|-5-------------4-----|
|-0-0-0-0-0-0--0--0-0--0--0-0-|-6-------------5-----|
|
| PM  PM       ~~~~~~~~~~~                    ~~~
| E E E E E E  Q.     +Q    E   Q.   +Q    E  H.
|-----------------------------|---------------------|
|---------6---[6]-----(6)-----|---------------------|
|-----------------------------|-9----(9)s=16-16-----|
|-----------------------------|---------------------|
|-----------------------------|---------------------|
|-6---7-----------------------|---------------------|


  (E)
   PM---------------------------|
   E  E E  E  E E  E  E E  E  E E
|---------------------------------|
|---------------------------------|
|---------------------------------|
|---------------------------------|
|---------------------------------|
|--0--0-0--0--0-0--0--0-0--0--0-0-|
|
|          ~~~
|  E  E E  Q.      E  E E  Q.
|---------------------------------|
|-12-12---12------12-12---12------|
|-12-12---12------12-12---12------|
|---------------------------------|
|---------------------------------|
|---------------------------------|


  Bb         A            N.C.
                           PM---------------------|
   H.         H.           E  E E E E E E E E E E E
|-----------------------|----------------------------||
|-----------------------|----------------------------||
|-----------------------|----------------------------||
|--8----------7---------|----------------------------||
|--5----------4---------|----------------------------||
|--6----------5---------|--5--0-0-6-0-0-7-0-0-8-0-0--||
|
|  ~~~~~~~~~~~~~~~~
|  H.         H.           W.
|-----------------------|----------------------------||
|-15b17------12---------|----------------------------||
|------------14b16------|----------------------------||
|-----------------------|----------------------------||
|-----------------------|----------------------------||
|-----------------------|-12\------------------------||


 Interlude
  Gtrs I, II
  PM----------|         PM----------------------------------------|         PM
  E E E E E E Q  E +Q   E   E E E E E E E E E E E E   E E E E E E Q  E +Q   E
|-------------------------|-------------------------|--------------------------|
|-------------------------|-------------------------|--------------------------|
|-------------------------|-------------------------|--------------------------|
|-------------------------|-------------------------|--------------------------|
|----------------7-(7)----|-------------------------|----------------7-(7)-----|
|-7-0-0-6-0-0-5---------0-|-5-0-0-6-0-0-7-0-0-8-0-0-|-7-0-0-6-0-0-5---------0--|


  G#5 A5  A#5 B5  Bb5 A5    G#5 A5  A#5 B5  E5
  PM------------------|     PM----------|
  E E E E E E E E E E E E   E E E E E E E E E +Q   E
|-------------------------|--------------------------|
|-------------------------|--------------------------|
|-------------------------|--------------------------|
|-------------------------|-----------------9-(9)----|
|-6---7---8---9---8---7---|-6---7---8---9---7-(7)----|
|-4---5---6---7---6---5---|-4---5---6---7----------0-|


    G#5 A5  A#5 B5  Bb5 A5
    PM------------------|
    E E E E E E E E E E E E
||---------------------------|
||o--------------------------|
||---------------------------|
||---------------------------|
||o-6---7---8---9---8---7----|
||--4---5---6---7---6---5----|


  G#5 A5  A#5 B5
  PM----------|            PM---
  E E E E E E E E E Q      E
|-----------------------------||
|----------------------------o||
|-----------------------------||
|-----------------------------||
|-6---7---8---9---7-7b7.5----o||
|-4---5---6---7------------0--||


  G#5 A5  A#5 B5  Bb5 A5    G#5 A5  A#5 B5
 ---------------------|     PM----------|
  E E E E E E E E E E E E   E E E E E E E E  E  +Q.
|-------------------------|----------------------------||
|-------------------------|----------------------------||
|-------------------------|-----------------12-(12)----||
|-------------------------|-----------------12-(12)----||
|-6---7---8---9---8---7---|-6---7---8---9--------------||
|-4---5---6---7---6---5---|-4---5---6---7--------------||


  Q=158
  (E)                                     E5
 4/4
  PM------------------------------------|
  E E S S S S E E S S S S   E E S S S S E Q  E
|-------------------------|--------------------|
|-------------------------|--------------------|
|-------------------------|---------------9----|
|-------------------------|---------------9----|
|-------------------------|--------------------|
|-0-0-0-0---0-0-0-0-0---0-|-0-0-0-0---0-0------|


  (E)                                     G5
  PM------------------------------------|
  E E S S S S E E S S S S   E E S S S S E  Q   +E
|-------------------------|-------------------------||
|-------------------------|-------------------------||
|-------------------------|---------------12--(12)\-||
|-------------------------|---------------12--(12)\-||
|-------------------------|-------------------------||
|-0-0-0-0---0-0-0-0-0---0-|-0-0-0-0---0-0-----------||


 Verse
  (E)                                     G5
  PM------------------------------------|
  E E S S S S E E S S S S   E E S S S S E  Q  E
|-------------------------|---------------------|
|-------------------------|---------------------|
|-------------------------|---------------12----|
|-------------------------|---------------12----|
|-------------------------|---------------------|
|-0-0-0-0---0-0-0-0-0---0-|-0-0-0-0---0-0-------|


  (E)                                     E5
  PM------------------------------------|
  E E S S S S E E S S S S   E E S S S S E Q  E
|-------------------------|--------------------|
|-------------------------|--------------------|
|-------------------------|---------------9----|
|-------------------------|---------------9----|
|-------------------------|--------------------|
|-0-0-0-0---0-0-0-0-0---0-|-0-0-0-0---0-0------|


  (Bb) (A)    (E)                       (Bb) (A)
  Gtr I
  ~~~~~~~     PM----|   PM------|   PM  ~~~~~~~
  H    H      E E S S S S E E S S S S   H    H
|-----------|-------------------------|-----------|
|-----------|-------------------------|-----------|
|-----------|-------------------------|-----------|
|-----------|-------------------------|-----------|
|-----------|-------------------------|-----------|
|-6----5----|-0-0-0-0---0-0-0-0-0---0-|-6----5----|
|
| Gtr II
| ~~~~~~~     PM----|   PM------|   PM  ~~~~~~~
| H    H      E E S S S S E E S S S S   H    H
|-----------|-------------------------|-----------|
|-----------|-------------------------|-----------|
|-----------|-------------------------|-----------|
|-8----7----|-------------------------|-8----7----|
|-----------|-------------------------|-----------|
|-----------|-0-0-0-0---0-0-0-0-0---0-|-----------|


  (E)                       Bb5  A5     (E)
  PM----|   PM------|   PM              PM----|   PM------|   PM
  E E S S S S E E S S S S   H    H      E E S S S S E E S S S S
|-------------------------|-----------|--------------------------|
|-------------------------|-----------|--------------------------|
|-------------------------|-----------|--------------------------|
|-------------------------|-8----7----|--------------------------|
|-------------------------|-8----7----|--------------------------|
|-0-0-0-0---0-0-0-0-0---0-|-6----5----|-0-0-0-0---0-0-0-0-0---0--|
|
| PM----|   PM------|   PM              PM----|   PM------|   PM
| E E S S S S E E S S S S   H    H      E E S S S S E E S S S S
|-------------------------|-----------|--------------------------|
|-------------------------|-----------|--------------------------|
|-------------------------|-----------|--------------------------|
|-------------------------|-8----7----|--------------------------|
|-------------------------|-8----7----|--------------------------|
|-0-0-0-0---0-0-0-0-0---0-|-6----5----|-0-0-0-0---0-0-0-0-0---0--|


  Bb5  A5     (E)
              PM----|   PM------|   PM------------------------|
  H    H      E E S S S S E E S S S S   E E S S S S E E S S S S
|-----------|-------------------------|--------------------------|
|-----------|-------------------------|--------------------------|
|-----------|-------------------------|--------------------------|
|-8----7----|-------------------------|--------------------------|
|-8----7----|-------------------------|--------------------------|
|-6----5----|-0-0-0-0---0-0-0-0-0---0-|-0-0-0-0---0-0-0-0-0---0--|
|
|             PM------|                 PM------|
| H    H      E E S S S S Q   Q         E E S S S S Q   Q
|-----------|-------------------------|--------------------------|
|-----------|-------------------------|--------------------------|
|-----------|-------------------------|--------------------------|
|-8----7----|-------------------------|--------------------------|
|-8----7----|-----------5-5---3-------|-----------5-5---3--------|
|-6----5----|-0-0-0-0-----------------|-0-0-0-0------------------|


  Gtr I
  PM--------------------------------------------------------|   PM------|   PM
  E E S S S S E E S S S S   E E S S S S E E S S S S   E E S S S S E E S S S S
|-------------------------|-------------------------|--------------------------|
|-------------------------|-------------------------|--------------------------|
|-------------------------|-------------------------|--------------------------|
|-------------------------|-------------------------|--------------------------|
|-------------------------|-------------------------|--------------------------|
|-0-0-0-0---0-0-0-0-0---0-|-0-0-0-0---0-0-0-0-0---0-|-3-3-3-3---3-3-3-3-3---3--|
|
| Gtr II
| PM------|                 PM------|                 PM------|
| E E S S S S Q   Q         E E S S S S Q   Q         E E S S S S Q   Q
|-------------------------|-------------------------|--------------------------|
|-------------------------|-------------------------|--------------------------|
|-------------------------|-------------------------|--------------------------|
|-------------------------|-------------------------|--------------------------|
|-----------5-5---3-------|-----------5-5---3-------|-----------5-5---3--------|
|-0-0-0-0-----------------|-0-0-0-0-----------------|-3-3-3-3------------------|


  PM----|   PM------|   PM--------------------------------------------------|
  E E S S S S E E S S S S   E E S S S S E E S S S S   E E S S S S E E S S S S
|-------------------------|-------------------------|--------------------------|
|-------------------------|-------------------------|--------------------------|
|-------------------------|-------------------------|--------------------------|
|-------------------------|-------------------------|--------------------------|
|-------------------------|-------------------------|--------------------------|
|-3-3-3-3---3-3-3-3-3---3-|-0-0-0-0---0-0-0-0-0---0-|-0-0-0-0---0-0-0-0-0---0--|
|
| PM------|                 PM------|                 PM------|
| E E S S S S Q   Q         E E S S S S Q   Q         E E S S S S Q   Q
|-------------------------|-------------------------|--------------------------|
|-------------------------|-------------------------|--------------------------|
|-------------------------|-------------------------|--------------------------|
|-------------------------|-------------------------|--------------------------|
|-----------5-5---3-------|-----------5-5---3-------|-----------5-5---3--------|
|-3-3-3-3-----------------|-0-0-0-0-----------------|-0-0-0-0------------------|


  PM----|   PM------|   PM--------|   PM------|   PM------------------------|
  E E S S S S E E S S S S   E E S S S S E E S S S S   E E S S S S E E S S S S
|-------------------------|-------------------------|--------------------------|
|-------------------------|-------------------------|--------------------------|
|-------------------------|-------------------------|--------------------------|
|-------------------------|-------------------------|--------------------------|
|-------------------------|-------------------------|--------------------------|
|-3-3-3-3---3-3-3-3-3---3-|-3-3-3-3---3-3-3-3-3---3-|-0-0-0-0---0-0-0-0-0---0--|
|
| PM------|                 PM------|                 PM------|
| E E S S S S Q   Q         E E S S S S Q   Q         E E S S S S Q   Q
|-------------------------|-------------------------|--------------------------|
|-------------------------|-------------------------|--------------------------|
|-------------------------|-------------------------|--------------------------|
|-------------------------|-------------------------|--------------------------|
|-----------5-5---3-------|-----------5-5---3-------|-----------5-5---3--------|
|-3-3-3-3-----------------|-3-3-3-3-----------------|-0-0-0-0------------------|


  PM------------------------------|   PM------|   PM--------|   PM------|   PM
  E E S S S S E E S S S S   E E S S S S E E S S S S   E E S S S S E E S S S S
|-------------------------|-------------------------|--------------------------|
|-------------------------|-------------------------|--------------------------|
|-------------------------|-------------------------|--------------------------|
|-------------------------|-------------------------|--------------------------|
|-------------------------|-------------------------|--------------------------|
|-0-0-0-0---0-0-0-0-0---0-|-3-3-3-3---3-3-3-3-3---3-|-3-3-3-3---3-3-3-3-3---3--|
|
| PM------|                 PM------|                 PM------|
| E E S S S S Q   Q         E E S S S S Q   Q         E E S S S S Q   Q
|-------------------------|-------------------------|--------------------------|
|-------------------------|-------------------------|--------------------------|
|-------------------------|-------------------------|--------------------------|
|-------------------------|-------------------------|--------------------------|
|-----------5-5---3-------|-----------5-5---3-------|-----------5-5---3--------|
|-0-0-0-0-----------------|-3-3-3-3-----------------|-3-3-3-3------------------|


                                                      Bb5  A5
  PM----------------------------------------------|
  E E S S S S E E S S S S   E E S S S S E E S S S S   H    H
|-------------------------|-------------------------|-----------|
|-------------------------|-------------------------|-----------|
|-------------------------|-------------------------|-----------|
|-------------------------|-------------------------|-8----7----|
|-------------------------|-------------------------|-8----7----|
|-0-0-0-0---0-0-0-0-0---0-|-0-0-0-0---0-0-0-0-0---0-|-6----5----|
|
| PM------|                 PM------|
| E E S S S S Q   Q         E E S S S S Q   Q         H    H
|-------------------------|-------------------------|-----------|
|-------------------------|-------------------------|-----------|
|-------------------------|-------------------------|-----------|
|-------------------------|-------------------------|-8----7----|
|-----------5-5---3-------|-----------5-5---3-------|-8----7----|
|-0-0-0-0-----------------|-0-0-0-0-----------------|-6----5----|


  (E)                       Bb5  A5     (E)
  Gtrs I, II
  PM----|   PM------|   PM              PM----|   PM------|   PM
  E E S S S S E E S S S S   H    H      E E S S S S E E S S S S
|-------------------------|-----------|--------------------------|
|-------------------------|-----------|--------------------------|
|-------------------------|-----------|--------------------------|
|-------------------------|-8----7----|--------------------------|
|-------------------------|-8----7----|--------------------------|
|-0-0-0-0---0-0-0-0-0---0-|-6----5----|-0-0-0-0---0-0-0-0-0---0--|


  N.C.             (E)                       Bb5  A5
                   PM--------------------|
  H    Q.   +E     E E S S S S E E S S S S   H    H
|----------------|-------------------------|-----------|
|----------------|-------------------------|-----------|
|----------------|-------------------------|-----------|
|----------------|-------------------------|-8----7----|
|-5--------------|-------------------------|-8----7----|
|-6----5----(5)\-|-0-0-0-0---0-0-0-0-0---0-|-6----5----|


 Outro
  Q.=158
  (E)
 12/8
  Gtr I
  PM-------------------------------------------------
  E E E E E E E E E E E E   E E E E E E E E E E E E
|-------------------------|-------------------------|
|-------------------------|-------------------------|
|-------------------------|-------------------------|
|-------------------------|-------------------------|
|-------------------------|-------------------------|
|-0-0-0-0-0-0-0-0-0-0-0-0-|-0-0-0-0-0-0-0-0-0-0-0-0-|
|
| Gtr II
| E E E E E E E E E E E E   E E E E E E E E E E E E
|-------------------------|-------------------------|
|-------------------------|-------------------------|
|-------------------------|-------------------------|
|-------------------------|-------------------------|
|-------------------------|-------------------------|
|-5-0-6-0-7-0-8-0-7-0-6-0-|-5-0-6-0-7-0-8-0-7-0-6-0-|


 -----------------------|
  E E E E E E E E E E E E
|---------------------------|
|---------------------------|
|---------------------------|
|---------------------------|
|---------------------------|
|-0-0-0-0-0-0-0-0-0-0-0-0---|
|
| E E E E E E E E E E E E
|---------------------------|
|---------------------------|
|---------------------------|
|---------------------------|
|---------------------------|
|-5-0-6-0-7-0-8-0-7-0-6-0---|


                            G#5
  PM--------------------|
  E E E E E E E E E E E E   W.
|-------------------------|---------------|
|-------------------------|---------------|
|-------------------------|---------------|
|-------------------------|-6-------------|
|-------------------------|-6-------------|
|-0-0-0-0-0-0-0-0-0-0-0-0-|-4-------------|
|
| E E E E E E E E E E E E   W.
|-------------------------|---------------|
|-------------------------|---------------|
|-------------------------|---------------|
|-------------------------|-6-------------|
|-------------------------|-6-------------|
|-5-0-6-0-7-0-8-0-7-0-6-0-|-4-------------|


  +W.              +Q.   H.      +Q.
|----------------|-----------------------*|
|----------------|-----------------------*|
|----------------|-----------------------*|
|-(6)------------|-(6)---6-------(6)\----*|
|-(6)------------|-(6)---6-------(6)\----*|
|-(4)------------|-(4)---4-------(4)\----*|
|
| +W.              +Q.   H.      +Q.
|----------------|-----------------------*|
|----------------|-----------------------*|
|----------------|-----------------------*|
|-(6)------------|-(6)---6-------(6)\----*|
|-(6)------------|-(6)---6-------(6)\----*|
|-(4)------------|-(4)---4-------(4)\----*|



Duration Legend
---------------
W - whole; H - half; Q - quarter; E - 8th; S - 16th; T - 32nd; X - 64th; a - acciaccatura
+ - note tied to previous; . - note dotted; .. - note double dotted
Uncapitalized letters represent notes that are staccato (1/2 duration)
Irregular groupings are notated above the duration line
Duration letters will always appear directly above the note/fret number it represents the
duration for.  Duration letters with no fret number below them represent rests.  Multi-
bar rests are notated in the form Wxn, where n is the number of bars to rest for.  Low
melody durations appear below the staff

Tablature Legend
----------------
 h   - hammer-on
 p   - pull-off
 b   - bend
 pb  - pre-bend
 r   - bend release (if no number after the r, then release immediately)
 /\  - slide into or out of (from/to "nowhere")
 s   - legato slide
 S   - shift slide
 - natural harmonic
[n]  - artificial harmonic
n(n) - tapped harmonic
 ~   - vibrato
 tr  - trill
 T   - tap
 TP  - trem. picking
 PM  - palm muting
\n/  - tremolo bar dip; n = amount to dip
 \n  - tremolo bar down
 n/  - tremolo bar up
/n\  - tremolo bar inverted dip
 =   - hold bend; also acts as connecting device for hammers/pulls
 <> - volume swell (louder/softer)
 x   - on rhythm slash represents muted slash
 o   - on rhythm slash represents single note slash

Misc Legend
-----------
 |  - bar
||  - double bar
||o - repeat start
o|| - repeat end
*|  - double bar (ending)
 :  - bar (freetime)
 $  - Segno
 &  - Coda
Tempo markers -  = BPM(8/16=s8/s16), where s8 = swing 8ths, s16 = swing 16ths

Related for Belly Of The Beast Live tab