Song name
# A B C D E F G H I J K L M N O P Q R S T U V W X Y Z

Anthrax - Caught In A Mosh tab

#----------------------------------PLEASE NOTE---------------------------------#
#This file is the author's own work and represents their interpretation of the #
#song. You may only use this file for private study, scholarship, or research. #
#------------------------------------------------------------------------------#

CAUGHT IN A MOSH
As recorded by Anthrax
(From the 1987 Album AMONG THE LIVING)

Transcribed by cbliss66@aol.com
	

Words and Music by Anthrax
Arranged by Anthrax

Gtr I (E A D G B E) - 'Gtr.I'
Gtr II (E A D G B E) - 'Gtr.II'
Gtr III (E A D G B E) - 'Lead I'
Gtr IV (E A D G B E) - 'Lead II'

   Intro
    Moderately Q=94                                   1.
    D5                                                 A5
   4/4
    Gtr I
    H..          E   H..          E   H..          E   H..          E
||-----------------|----------------|----------------|-----------------||
||o----------------|----------------|----------------|----------------o||
||--7--------------|-7--------------|-7--------------|-----------------||
||--7--------------|-7--------------|-7--------------|-7---------------||
||o-5--------------|-5--------------|-5--------------|-7--------------o||
||-----------------|----------------|----------------|-5---------------||
|
|   Gtr II
|   H.       S S E   H.       S S E   H.       S S E   H.       S S E
||-----------x-x---|----------x-x---|----------x-x---|----------x-x----||
||o----------x-x---|----------x-x---|----------x-x---|----------x-x---o||
||-----------x-x---|----------x-x---|----------x-x---|----------x-x----||
||-----------x-x---|----------x-x---|----------x-x---|----------x-x----||
||o----------x-x---|----------x-x---|----------x-x---|----------x-x---o||
||-----------x-x---|----------x-x---|----------x-x---|----------x-x----||


  2.       Double Time Q=188
  E5
  Gtrs I, II
  W          +W           +W           +W
|----------|------------|------------|--------|
|----------|------------|------------|--------|
|----------|------------|------------|--------|
|-2--------|-(2)--------|-(2)--------|-(2)----|
|-2--------|-(2)--------|-(2)--------|-(2)----|
|-0--------|-(0)--------|-(0)--------|-(0)----|


  +W           +H..       E     +E  E E E E E E E   E E E E E E E E
|------------|--------------||--------------------|-----------------|
|------------|--------------||o-------------------|-----------------|
|------------|--------------||--------------------|-----------------|
|-(2)--------|-(2)----------||--------------------|-----------------|
|-(2)--------|-(2)----------||o-------------------|---------1-2-3---|
|-(0)--------|-(0)--------0-||--(0)-0-1-0-0-3-0-0-|-4-0-5-0-------0-|


                     1.,2.               3.               Faster Q=205
                                                        E5
  +E  E E E E E E E   E E E E E E E E  3x E E E E E E E E   +E  H.      E
|-------------------|------------------||-----------------|---------------|
|-------------------|-----------------o||-----------------|---------------|
|-------------------|------------------||---------------9-|-(9)-----------|
|-------------------|------------------||---------------9-|-(9)-----------|
|-------------------|---------3-2-1---o||---------3-2-1-7-|-(7)-----------|
|-(0)-0-1-0-0-3-0-0-|-4-0-5-0-------0--||-4-0-5-0---------|---------------|


                Verses
             $
                 E5                              B5  C5     F5 E5    Eb5
                   PM--------------------------|        PM|      PM|
  Wx3            E E E E E E E E   E E E E E E E E    E E E  E E E E E
|------------||------------------|-----------------|-------------------|
|------------||o-----------------|-----------------|-------------------|
|------------||--9---------------|-----------------|--------10-9-----8-|
|------------||--9---------------|---------------9s|=10-----10-9-----8-|
|------------||o-7---------------|---------------9s|=10------8-7-----6-|
|------------||--0-0-0-0-0-0-0-0-|-0-0-0-0-0-0-0-7s|==8-0-0------0-0---|


  E5            E5                                    B5  C5     F5 E5    Eb5
    PM--------|         PM--------------------------|        PM|      PM|
  E E E E E E E E   +E  E E E E E E E   E E E E E E E E    E E E  E E E E E
|-----------------|-------------------|-----------------|-------------------|
|-----------------|-------------------|-----------------|-------------------|
|-9-------------9-|-(9)---------------|-----------------|--------10-9-----8-|
|-9-------------9-|-(9)---------------|---------------9s|=10-----10-9-----8-|
|-7-------------7-|-(7)---------------|---------------9s|=10------8-7-----6-|
|---0-0-0-0-0-0---|-----0-0-0-0-0-0-0-|-0-0-0-0-0-0-0-7s|==8-0-0------0-0---|


  E5            E5                                  B5  C5     F5 E5    Eb5
    PM--------|       PM--------------------------|        PM|      PM|
  E E E E E E E E   E E E E E E E E   E E E E E E E E    E E E  E E E E E
|-----------------|-----------------|-----------------|-------------------|
|-----------------|-----------------|-----------------|-------------------|
|-9-------------9-|-9---------------|-----------------|--------10-9-----8-|
|-9-------------9-|-9---------------|---------------9s|=10-----10-9-----8-|
|-7-------------7-|-7---------------|---------------9s|=10------8-7-----6-|
|---0-0-0-0-0-0---|-0-0-0-0-0-0-0-0-|-0-0-0-0-0-0-0-7s|==8-0-0------0-0---|


  E5            E5                                    B5  C5     F5 E5    Eb5
    PM--------|         PM--------------------------|        PM|      PM|
  E E E E E E E E   +E  E E E E E E E   E E E E E E E E    E E E  E E E E E
|-----------------|-------------------|-----------------|-------------------|
|-----------------|-------------------|-----------------|-------------------|
|-9-------------9-|-(9)---------------|-----------------|--------10-9-----8-|
|-9-------------9-|-(9)---------------|---------------9s|=10-----10-9-----8-|
|-7-------------7-|-(7)---------------|---------------9s|=10------8-7-----6-|
|---0-0-0-0-0-0---|-----0-0-0-0-0-0-0-|-0-0-0-0-0-0-0-7s|==8-0-0------0-0---|


  E5          G5         F#5                            G5    F#5
                  2/4        4/4
    PM------|                     PM------------------|
  E E E E E E Q    +Q.   E    +E  E E E E E E E   E E E Q  Q  E
|----------------|---------||-------------------|---------------|
|----------------|---------||-------------------|---------------|
|-9--------------|---------||-------------------|---------------|
|-9-----------5--|-(5)---4-||-(4)---------------|-------5--5--4-|
|-7-----------5--|-(5)---4-||-(4)---------------|-------5--5--4-|
|---0-0-0-0-0-3--|-(3)---2-||-(2)-0-2-0-2-0-2-0-|-2-0-2-3--3--2-|


                            G5      F#5                           G5    F#5
      PM------------------|                 PM------------------|
  +E  E E E E E E E   E E E E +Q.   E   +E  E E E E E E E   E E E Q  Q  E
|-------------------|-----------------|-------------------|---------------|
|-------------------|-----------------|-------------------|---------------|
|-------------------|-----------------|-------------------|---------------|
|-(4)---------------|-------5-(5)---4-|-(4)---------------|-------5--5--4-|
|-(4)---------------|-------5-(5)---4-|-(4)---------------|-------5--5--4-|
|-(2)-0-2-0-2-0-2-0-|-2-0-2-3-(3)---2-|-(2)-0-2-0-2-0-2-0-|-2-0-2-3--3--2-|


                                       Chorus
                            G5          D5
      PM------------------|
  +E  E E E E E E E   E E E H    +E     W          +W
|-------------------|----------------||----------|--------|
|-------------------|----------------||----------|--------|
|-------------------|----------------||-7--------|-(7)----|
|-(4)---------------|-------5----(5)-||-7--------|-(7)----|
|-(4)---------------|-------5----(5)-||-5--------|-(5)----|
|-(2)-0-2-0-2-0-2-0-|-2-0-2-3----(3)-||----------|--------|


  F5/C       Csus2
  W          W          E E E E E E E E   E E E E E E E E
|----------|-3--------|-----------------|-----------------|
|----------|-3--------|-----------------|-----------------|
|-5--------|-5--------|-----------------|-----------------|
|-3--------|-5--------|-----------------|-----------------|
|-3--------|-3--------|-----------------|---------1-2-3---|
|----------|----------|-0-0-1-0-0-3-0-0-|-4-0-5-0-------0-|


                                        D5
  +E  E E E E E E E   E E E E E E E E   W          +W
|-------------------|-----------------|----------|--------|
|-------------------|-----------------|----------|--------|
|-------------------|-----------------|-7--------|-(7)----|
|-------------------|-----------------|-7--------|-(7)----|
|-------------------|---------3-2-1---|-5--------|-(5)----|
|-(0)-0-1-0-0-3-0-0-|-4-0-5-0-------0-|----------|--------|


  F5/C       Csus2
  W          W          E E E E E E E E   E E E E E E E E
|----------|-3--------|-----------------|-----------------|
|----------|-3--------|-----------------|-----------------|
|-5--------|-5--------|-----------------|-----------------|
|-3--------|-5--------|-----------------|-----------------|
|-3--------|-3--------|-----------------|---------1-2-3---|
|----------|----------|-0-0-1-0-0-3-0-0-|-4-0-5-0-------0-|


  +E  E E E E E E E   E E E E E E E E   +E  E E E E E E E   E E E E E E E E
|-------------------|-----------------|-------------------|-----------------|
|-------------------|-----------------|-------------------|-----------------|
|-------------------|-----------------|-------------------|-----------------|
|-------------------|-----------------|-------------------|-----------------|
|-------------------|---------3-2-1---|-------------------|---------1-2-3---|
|-(0)-0-1-0-0-3-0-0-|-4-0-5-0-------0-|-(0)-0-1-0-0-3-0-0-|-4-0-5-0-------0-|


                                                            Bridge
                     1.                  2.               Slower Q=164
           To Coda
                                    E5                  E5              F5
                                                                        PM
  +E  E E E E E E E   E E E E E E E E     E E E E E E E E    +H..       E
|-------------------|------------------||-----------------||--------------|
|-------------------|-----------------o||-----------------||--------------|
|-------------------|---------------9--||-----------------||--------------|
|-------------------|---------------9--||---------------2-||-(2)----------|
|-------------------|---------3-2-1-7-o||---------3-2-1-2-||-(2)--------3-|
|-(0)-0-1-0-0-3-0-0-|-4-0-5-0----------||-4-0-5-0-------0-||-(0)--------1-|


  E5        F5  E5        F5  E5           E5      E5
            PM            PM
  H..       E   H..       E   W            H.      Q
|-------------|-------------|----------||--------------|
|-------------|-------------|----------||o-------------|
|-------------|-------------|----------||----------9S==|
|-2-----------|-2-----------|-2--------||--2-------9S==|
|-2---------3-|-2---------3-|-2--------||o-2-------7S==|
|-0---------1-|-0---------1-|-0--------||--0-----------|


                                                           Bridge Verse
  C5         F#5              G5      A5                    E5      E5
                PM--------|     PM--|
  W          Q  E E E E E E   E S S E Q  +E  E +E           H.      Q
|----------|----------------|------------------------||-||----------------|
|----------|----------------|-----------------------o||-||o---------------|
|-5--------|----------------|------------------------||-||----------9S====|
|-5--------|-4--------------|---------7--(7)-7-(7)\--||-||--2-------9S====|
|-3--------|-4--4-4-4-4-4-4-|-5-------7--(7)-7-(7)\-o||-||o-2-------7S====|
|----------|-2--2-2-2-2-2-2-|-3-0-0-0-5--(5)-5-(5)\--||-||--0-------------|


                                                        Faster Q=205
  C5         F#5              G5      A5                   E5
                PM--------|     PM--|                      PM------------|
  W          Q  E E E E E E   E S S E Q  +E  E +E          E E E E E E E E
|----------|----------------|------------------------||-||-------------------|
|----------|----------------|-----------------------o||-||-------------------|
|-5--------|----------------|------------------------||-||-------------------|
|-5--------|-4--------------|---------7--(7)-7-(7)\--||-||-------------------|
|-3--------|-4--4-4-4-4-4-4-|-5-------7--(7)-7-(7)\-o||-||-2-2-2-2-2-2-2-2---|
|----------|-2--2-2-2-2-2-2-|-3-0-0-0-5--(5)-5-(5)\--||-||-0-0-0-0-0-0-0-0---|


  E5                                                F#5
  PM----------------------------------------------|          PM----------|
  E E E E E E E E   E E E E E E E E   E E E E E E E E    +E  E E E E E E E
|-----------------|-----------------|-----------------||-------------------|
|-----------------|-----------------|-----------------||-------------------|
|-----------------|-----------------|-----------------||-------------------|
|-----------------|-----------------|---------------4-||-(4)---------------|
|-2-2-2-2-2-2-2-2-|-2-2-2-2-2-2-2-2-|-2-2-2-2-2-2-2-4-||-(4)---------------|
|-0-0-0-0-0-0-0-0-|-0-0-0-0-0-0-0-0-|-0-0-0-0-0-0-0-2-||-(2)-0-2-0-2-0-2-0-|


        G5    F#5                           G5    F#5
  PM--|               PM------------------|               PM----------|
  E E E Q  Q  E   +E  E E E E E E E   E E E Q  Q  E   +E  E E E E E E E
|---------------|-------------------|---------------|-------------------|
|---------------|-------------------|---------------|-------------------|
|---------------|-------------------|---------------|-------------------|
|-------5--5--4-|-(4)---------------|-------5--5--4-|-(4)---------------|
|-------5--5--4-|-(4)---------------|-------5--5--4-|-(4)---------------|
|-2-0-2-3--3--2-|-(2)-0-2-0-2-0-2-0-|-2-0-2-3--3--2-|-(2)-0-2-0-2-0-2-0-|


             G5        F#5
  Gtrs I, II
   PM------|                    PM-------------
   E     E E Q      Q  E    +E  E E E E E E E
|------------------------|--------------------|
|------------------------|--------------------|
|------------------------|--------------------|
|------------5------5--4-|--(4)---------------|
|------------5------5--4-|--(4)---------------|
|--2-----0-2-3------3--2-|--(2)-0-2-0-2-0-2-0-|
|
| Gtrs III, IV
|  <
|  H            +H          +W
|------------------------|--------------------|
|-12b14========(12)------|-(12)---------------|
|------------------------|--------------------|
|------------------------|--------------------|
|------------------------|--------------------|
|------------------------|--------------------|


                     Guitar Solo
           G5    F#5
 --------|                   PM-------------------|
    E  E E Q  Q  E    +E     E E E   E    E  E     E
|------------------||-------------------------------------|
|------------------||-------------------------------------|
|------------------||-------------------------------------|
|----------5--5--4-||-(4)---------------------------------|
|----------5--5--4-||-(4)---------------------------------|
|---2--0-2-3--3--2-||-(2)----0-2-0---2----0--2-----0------|
|
|                      ~~~~~~~~~~~~~~~~~~
|  +W                  H            +E    E  S  S  S  S
|------------------||-------------------------------------|
|-(12)-------------||--------------------14-15h17p15p14---|
|------------------||-16b18========(16)r------------------|
|------------------||-------------------------------------|
|------------------||-------------------------------------|
|------------------||-------------------------------------|


          G5        F#5
  Gtrs III, IV
   ~~~~~~~~~~~~~~~~~
   H.           +E   +E      H.           E E
|-------------------------|-------------------|
|-------------------------|-------------------|
|-16-----------(16)-(16)\-|-------------------|
|-------------------------|-/9------------9-7-|
|-------------------------|-------------------|
|-------------------------|-------------------|
|
| Gtrs I, II
|  PM---|                       PM-------------
|  E  E E Q  Q        E     +E  E E E E E E E
|-------------------------|-------------------|
|-------------------------|-------------------|
|-------------------------|-------------------|
|---------5--5--------4---|-(4)---------------|
|---------5--5--------4---|-(4)---------------|
|--2--0-2-3--3--------2---|-(2)-0-2-0-2-0-2-0-|


         G5        F#5
  E  H       +E  E  E    H.            E  E
|---------------------|---------------------|
|---------------------|---------------------|
|---------------------|---------------------|
|-9-10------(10)-9-10-|-12------------10-12-|
|---------------------|---------------------|
|---------------------|---------------------|
|
|------|                    PM-----------|
| E  E E Q    Q     E   +E  E E E E E  E  E
|---------------------|---------------------|
|---------------------|---------------------|
|---------------------|---------------------|
|--------5----5-----4-|-(4)-----------------|
|--------5----5-----4-|-(4)-----------------|
|-2--0-2-3----3-----2-|-(2)-0-2-0-2-0--2--0-|


          G5      F#5
                                     |---3---|
   H.           E  E    E   E  E  E  E  E    E  E  E
|--------------------|-------------------------------|
|--------------------|-----------12-12h13p==12----12-|
|--------------------|-----13-14---------------14----|
|-14-----------12-14-|-15----------------------------|
|--------------------|-------------------------------|
|--------------------|-------------------------------|
|
|  PM---|                   PM------------------------
|  E  E E Q  Q     E   +E   E  E  E  E    E     E  E
|--------------------|-------------------------------|
|--------------------|-------------------------------|
|--------------------|-------------------------------|
|---------5--5-----4-|-(4)---------------------------|
|---------5--5-----4-|-(4)---------------------------|
|--2--0-2-3--3-----2-|-(2)--0--2--0--2----0-----2--0-|


           G5                         G5
   E  E  E  E  Q.     E    E      +Q.      +E       +E    a       +E   +E
|-----------------------|----------------------------------------------------|
|-------12-13-15-----13-|-15pb17r(15)-----(15)b17==(15)r(15)b17==(15)-(15)r--|
|-13h14-----------------|----------------------------------------------------|
|-----------------------|----------------------------------------------------|
|-----------------------|----------------------------------------------------|
|-----------------------|----------------------------------------------------|
|
|-------|                          PM   PM|                        PM-|
|  E  E  E  Q     Q   E   +E       E  E E   E        E             E    E
|-----------------------|----------------------------------------------------|
|-----------------------|----------------------------------------------------|
|-----------------------|----------------------------------------------------|
|-----------5-----5-----|----------------------------------------------------|
|-----------5-----5-----|-------------5--------------5-----------------------|
|--2--0--2--3-----3---0-|-(0)------0--3-0---0--------3-------------0----0----|


  G5                      F#5             G5
   |---3---|                    |---3---|
   E  E    E  E  E  E  Q.       E  E    E  E  E  E  E  E  E
|----------------------------|------------------------------|
|-13h15---12-13-12-10-12-----|------------------------------|
|----------------------------|-14h16---13-14-13-------------|
|----------------------------|------------------15-14-12-14-|
|----------------------------|------------------------------|
|----------------------------|------------------------------|
|
|       PM---|      PM|              PM       PM|      PM|
|  E    E     E  E  E  E  Q     E    E     E  E  E  E  E  E
|----------------------------|------------------------------|
|----------------------------|------------------------------|
|----------------------------|------------------------------|
|----------------------------|------------------------------|
|--5-------------5--------4--|-------------5--------5-------|
|--3----0-----0--3--0--0--2--|--0----0-----3--0--0--3--0--0-|


                 B5              G5
    ~~~~
                       |---3---|
   +W                  E  E    E  E  E  E  Q    +E
|-------------------|--------------------------------|
|-------------------|--------------------------------|
|-------------------|--------------------------------|
|-(14)--------------|-12h14p==12----12---------------|
|-------------------|------------14----14-12---(12)\-|
|-------------------|--------------------------------|
|
|      PM|   PM|            PM       PM|     PM|
|   E  E E E E E Q     E    E     E  E  E  E E   E
|-------------------|--------------------------------|
|-------------------|--------------------------------|
|-------------------|--------------------------------|
|----------------4--|--------------------------------|
|---5------5-----2--|-------------5--------5---------|
|---3--0-0-3-0-0----|--0----0-----3--0--0--3-0---0---|


  G5              F#5      G5                            B5
                                              \2.5
  E  S S E E E Q.      E E E E E E E E   Q   +H.
|--------------------|-----------------|--------------------||
|--------------------|-----------------|--------------------||
|--------------------|-----------------|--------------------||
|--------------------|-----------------|--------------------||
|-8-10p8-7-8-7-5-----|-7-5-4-3-2-0-----|--------------------||
|--------------------|-------------4-1-|-0---(0)------------||
|
|    PM--|   PM|         PM  PM|   PM|     PM|       PM|
| E  E   E E E E  Q    E E E E E E E E   E E  E    E E E Q
|--------------------|-----------------|--------------------||
|--------------------|-----------------|--------------------||
|--------------------|-----------------|--------------------||
|--------------------|-----------------|-----------------4--||
|-5--------5------4--|-----5-----5-----|-5---------5-----2--||
|-3--0---0-3-0-0--2--|-0-0-3-0-0-3-0-0-|-3-0--0----3-0-0----||


 Harmony Solo Section
  E5
  Gtr III
           ~~~~~~~~~~~
   E      +H      +Q    +E      E   S  S  E  E  E  E  E  E
|----------------------------|-12h=13p12----12-------------|
|-15b17==(15)----(15)--(15)r-|-----------15----13-15-12-13-|
|----------------------------|-----------------------------|
|----------------------------|-----------------------------|
|----------------------------|-----------------------------|
|----------------------------|-----------------------------|
|
| Gtr IV
|          ~~~~~~~~~~~
|  E      +H      +Q    +E      E   S  S  E  E  E  E  E  E
|----------------------------|-----------------------------|
|----------------------------|-12h=13p12----12-------------|
|-14b16==(14)----(14)--(14)r-|-----------14----12-14-11-11-|
|----------------------------|-----------------------------|
|----------------------------|-----------------------------|
|----------------------------|-----------------------------|
|
| Gtrs I, II
|  W                           +H.                    E  E
|----------------------------|------------------------x--x-|
|----------------------------|------------------------x--x-|
|----------------------------|------------------------x--x-|
|--2-------------------------|-(2)--------------------x--x-|
|--2-------------------------|-(2)--------------------x--x-|
|--0-------------------------|-(0)--------------------x--x-|


  C5
           ~~~~
   S  E.  +H.         E   S  S  E  E  E  E  E  E
|------------------|-------------------------------|
|-15p13--(13)------|-12h=13p12----12-13-12---------|
|------------------|-----------14----------14-13---|
|------------------|-------------------------------|
|------------------|-------------------------------|
|------------------|-------------------------------|
|
|          ~~~~
|  S  E.  +H.         E   S  S  E  E  E  E  E  E
|------------------|-------------------------------|
|------------------|-------------------------------|
|-14p12--(12)------|-11h=12p11----11-12-11---------|
|------------------|-----------14----------14-13---|
|------------------|-------------------------------|
|------------------|-------------------------------|
|
|  W                 +H.                    E  E
|------------------|------------------------x--x---|
|------------------|------------------------x--x---|
|--5---------------|-(5)--------------------x--x---|
|--5---------------|-(5)--------------------x--x---|
|--3---------------|-(3)--------------------x--x---|
|------------------|------------------------x--x---|


  F#5
   ~~
   W           E   E  E  E  H
|-----------|----------------------|
|-----------|--------12------------|
|-14--------|-13--14----14-13------|
|-----------|----------------------|
|-----------|----------------------|
|-----------|----------------------|
|
|  ~~
|  W           E   E  E  E  H
|-----------|----------------------|
|-----------|----------------------|
|-----------|--------11------------|
|-14--------|-13--14----14-13------|
|-----------|----------------------|
|-----------|----------------------|
|
|  W          +H.              E E
|-----------|------------------x-x-|
|-----------|------------------x-x-|
|-----------|------------------x-x-|
|--4--------|-(4)--------------x-x-|
|--4--------|-(4)--------------x-x-|
|--2--------|-(2)--------------x-x-|


  G5                                    A5                      B5
   |--3--|  |--3--|  |--3--|  |--3--|    |---3----|
   E  E  E  E  E  E  E  E  E  E  E  E    E  E     E  S  S  S  S  H
|-------------------------------------|----------------------------------|
|-------------------15-17-15----------|-------------13-15-17-18-17-------|
|----------14-16-17----------17-16-14-|-12-14----16----------------------|
|-14-15-17----------------------------|----------------------------------|
|-------------------------------------|----------------------------------|
|-------------------------------------|----------------------------------|
|
|  |--3--|  |--3--|  |--3--|  |--3--|    |---3----|
|  E  E  E  E  E  E  E  E  E  E  E  E    E  E     E  S  S  S  S  H
|-------------------------------------|----------------------------------|
|-------------------------------------|----------------------------------|
|-------------------14-16-14----------|-------------12-14-16-17-16-------|
|----------14-16-17----------17-16-14-|-12-14----16----------------------|
|-14-15-17----------------------------|----------------------------------|
|-------------------------------------|----------------------------------|
|
|  W                                     E    Q.                 E Q.
|-------------------------------------|----------------------------------|
|-------------------------------------|----------------------------------|
|-------------------------------------|--2----2------------------4-4-----|
|--5----------------------------------|--2----2------------------4-4-----|
|--5----------------------------------|--0----0------------------2-2-----|
|--3----------------------------------|----------------------------------|


  E5
           ~~~~~~~~~~~
   E      +H      +Q    +E      E   S  S  E  E  E  E  E  E
|----------------------------|-12h=13p12----12-------------|
|-15b17==(15)----(15)--(15)r-|-----------15----13-15-12-13-|
|----------------------------|-----------------------------|
|----------------------------|-----------------------------|
|----------------------------|-----------------------------|
|----------------------------|-----------------------------|
|
|          ~~~~~~~~~~~
|  E      +H      +Q    +E      E   S  S  E  E  E  E  E  E
|----------------------------|-----------------------------|
|----------------------------|-12h=13p12----12-------------|
|-14b16==(14)----(14)--(14)r-|-----------14----12-14-11-11-|
|----------------------------|-----------------------------|
|----------------------------|-----------------------------|
|----------------------------|-----------------------------|
|
| Gtrs I, II
|  W                           +H.                    E  E
|----------------------------|------------------------x--x-|
|----------------------------|------------------------x--x-|
|----------------------------|------------------------x--x-|
|--2-------------------------|-(2)--------------------x--x-|
|--2-------------------------|-(2)--------------------x--x-|
|--0-------------------------|-(0)--------------------x--x-|


  C5
           ~~~~
   S  E.  +H.         E   S  S  E  E  E  E  E  E
|------------------|-------------------------------|
|-15p13--(13)------|-12h=13p12----12-13-12---------|
|------------------|-----------14----------14-13---|
|------------------|-------------------------------|
|------------------|-------------------------------|
|------------------|-------------------------------|
|
|          ~~~~
|  S  E.  +H.         E   S  S  E  E  E  E  E  E
|------------------|-------------------------------|
|------------------|-------------------------------|
|-14p12--(12)------|-11h=12p11----11-12-11---------|
|------------------|-----------14----------14-13---|
|------------------|-------------------------------|
|------------------|-------------------------------|
|
|  W                 +H.                    E  E
|------------------|------------------------x--x---|
|------------------|------------------------x--x---|
|--5---------------|-(5)--------------------x--x---|
|--5---------------|-(5)--------------------x--x---|
|--3---------------|-(3)--------------------x--x---|
|------------------|------------------------x--x---|


  F#5                                G5
   ~~
                                      |--3--|  |--3--|  |--3--|  |--3--|
   W           E   E  E  E  H         E  E  E  E  E  E  E  E  E  E  E  E
|-----------|----------------------|-------------------------------------|
|-----------|--------12------------|-------------------15-17-15----------|
|-14--------|-13--14----14-13------|----------14-16-17----------17-16-14-|
|-----------|----------------------|-14-15-17----------------------------|
|-----------|----------------------|-------------------------------------|
|-----------|----------------------|-------------------------------------|
|
|  ~~
|                                     |--3--|  |--3--|  |--3--|  |--3--|
|  W           E   E  E  E  H         E  E  E  E  E  E  E  E  E  E  E  E
|-----------|----------------------|-------------------------------------|
|-----------|----------------------|-------------------------------------|
|-----------|--------11------------|-------------------14-16-14----------|
|-14--------|-13--14----14-13------|----------14-16-17----------17-16-14-|
|-----------|----------------------|-14-15-17----------------------------|
|-----------|----------------------|-------------------------------------|
|
|  W          +H.              E E    W
|-----------|------------------x-x-|-------------------------------------|
|-----------|------------------x-x-|-------------------------------------|
|-----------|------------------x-x-|-------------------------------------|
|--4--------|-(4)--------------x-x-|--5----------------------------------|
|--4--------|-(4)--------------x-x-|--5----------------------------------|
|--2--------|-(2)--------------x-x-|--3----------------------------------|


  A5                   B5
   |---3----|  |--3--|  |---3----|  |--3--|
   E  E     E  E  E  E  E  E     E  E  E  E
|---------------------------------------------||
|-------------13-15-17-15-13-------15-17-18---||
|-12-14----16-------------------16------------||
|---------------------------------------------||
|---------------------------------------------||
|---------------------------------------------||
|
|  |---3----|  |--3--|  |---3----|  |--3--|
|  E  E     E  E  E  E  E  E     E  E  E  E
|---------------------------------------------||
|---------------------------------------------||
|-------------12-14-16-14-12-------14-16-17---||
|-12-14----16-------------------16------------||
|---------------------------------------------||
|---------------------------------------------||
|
|  E    Q.              E    Q.
|---------------------------------------------||
|---------------------------------------------||
|--2----2---------------4----4----------------||
|--2----2---------------4----4----------------||
|--0----0---------------2----2----------------||
|---------------------------------------------||


   ~~~~~~~~~~~~~~~~~~~~~~~                         ~~~~~~~~~~~~~~~~~~~~~~
   W                  +H.             E  E        +E   +H..
|-12---------------|-(12)----------------------|------------------------|
|------------------|----------------/20-22b24==|=(22)-(22)--------------|
|------------------|---------------------------|------------------------|
|------------------|---------------------------|------------------------|
|------------------|---------------------------|------------------------|
|------------------|---------------------------|------------------------|
|
|  ~~~~~~~~~~~~~~~~~~~~~~~                         ~~~~~~~~~~~~~~~~~~~~~~
|  W                  +H.             E  E        +E   +H..
|------------------|--------------------22b24==|=(22)-(22)--------------|
|-12---------------|-(12)-----------/20--------|------------------------|
|------------------|---------------------------|------------------------|
|------------------|---------------------------|------------------------|
|------------------|---------------------------|------------------------|
|------------------|---------------------------|------------------------|
|
|  E E E E E E E E     E  E E E E E   E  E        +E    E   E E E E E E
|------------------|---------------------------|------------------------|
|------------------|---------------------------|------------------------|
|------------------|---------------------------|------------------------|
|------------------|---------------------------|------------------------|
|------------------|------------1-2---3--------|------------------------|
|--0-0-1-0-0-3-0-0-|---4--0-5-0----------0-----|--(0)---0---1-0-0-3-0-0-|


 ~~~~~~
   +H.            +E    E        +E   +E    H.
|-----------------------------|--------------------------|
|-(22)-----------(22)r-22b24==|=(22)-(22)r\--------------|
|-----------------------------|--------------------------|
|-----------------------------|--------------------------|
|-----------------------------|--------------------------|
|-----------------------------|--------------------------|
|
|~~~~~~
|  +H.            +E    E        +E   +E    H.
|-(22)-----------(22)r-22b24==|=(22)-(22)r\--------------|
|-----------------------------|--------------------------|
|-----------------------------|--------------------------|
|-----------------------------|--------------------------|
|-----------------------------|--------------------------|
|-----------------------------|--------------------------|
|
|   E  E E E E E   E    E        +E    E    E  E E E E E
|-----------------------------|--------------------------|
|-----------------------------|--------------------------|
|-----------------------------|--------------------------|
|-----------------------------|--------------------------|
|------------3-2---1----------|--------------------------|
|---4--0-5-0------------0-----|--(0)---0----1--0-0-3-0-0-|


  Gtrs I, II
  E E E E E E E E   +E  E E E E E E E   E E E E E E E E   +E  E E E E E E E
|-----------------|-------------------|-----------------|-------------------|
|-----------------|-------------------|-----------------|-------------------|
|-----------------|-------------------|-----------------|-------------------|
|-----------------|-------------------|-----------------|-------------------|
|---------1-2-3---|-------------------|---------3-2-1---|-------------------|
|-4-0-5-0-------0-|-(0)-0-1-0-0-3-0-0-|-4-0-5-0-------0-|-(0)-0-1-0-0-3-0-0-|


  E E E E E E E E   +E  E E E E E E E   E E E E E E E E   +E  E E E E E E E
|-----------------|-------------------|-----------------|-------------------|
|-----------------|-------------------|-----------------|-------------------|
|-----------------|-------------------|-----------------|-------------------|
|-----------------|-------------------|-----------------|-------------------|
|---------1-2-3---|-------------------|---------3-2-1---|-------------------|
|-4-0-5-0-------0-|-(0)-0-1-0-0-3-0-0-|-4-0-5-0-------0-|-(0)-0-1-0-0-3-0-0-|


                                          D.S. al Coda
                                                      E5
  E E E E E E E E   +E  E E E E E E E   E E E E E E E E
|-----------------|-------------------|-----------------||
|-----------------|-------------------|-----------------||
|-----------------|-------------------|---------------9-||
|-----------------|-------------------|---------------9-||
|---------1-2-3---|-------------------|---------3-2-1-7-||
|-4-0-5-0-------0-|-(0)-0-1-0-0-3-0-0-|-4-0-5-0---------||


 Outro
  &
                E5       G5   E5       BbB5C5
  E E E E E E E E   H    Q.   E   H    E E  Q
|-----------------|-------------|--------------|
|-----------------|-------------|--------------|
|-----------------|-------------|--------------|
|---------------9-|------5----2-|------8-9-10--|
|---------3-2-1-7-|------5----2-|------8-9-10--|
|-4-0-5-0-------0-|------3----0-|------6-7--8--|


          E5        C5
   +H     E E E E    Q   +E   +E   H
|-----------------|---------------------*|
|-----------------|---------------------*|
|-----------------|---------------------*|
|-(10)----2-2-2-2-|-10--(10)-(10)\------*|
|-(10)----2-2-2-2-|-10--(10)-(10)\------*|
|--(8)----0-0-0-0-|--8---(8)--(8)\------*|



Duration Legend
---------------
W - whole; H - half; Q - quarter; E - 8th; S - 16th; T - 32nd; X - 64th; a - acciaccatura
+ - note tied to previous; . - note dotted; .. - note double dotted
Uncapitalized letters represent notes that are staccato (1/2 duration)
Irregular groupings are notated above the duration line
Duration letters will always appear directly above the note/fret number it represents the
duration for.  Duration letters with no fret number below them represent rests.  Multi-
bar rests are notated in the form Wxn, where n is the number of bars to rest for.  Low
melody durations appear below the staff

Tablature Legend
----------------
 h   - hammer-on
 p   - pull-off
 b   - bend
 pb  - pre-bend
 r   - bend release (if no number after the r, then release immediately)
 /\  - slide into or out of (from/to "nowhere")
 s   - legato slide
 S   - shift slide
 - natural harmonic
[n]  - artificial harmonic
n(n) - tapped harmonic
 ~   - vibrato
 tr  - trill
 T   - tap
 TP  - trem. picking
 PM  - palm muting
\n/  - tremolo bar dip; n = amount to dip
 \n  - tremolo bar down
 n/  - tremolo bar up
/n\  - tremolo bar inverted dip
 =   - hold bend; also acts as connecting device for hammers/pulls
 <> - volume swell (louder/softer)
 x   - on rhythm slash represents muted slash
 o   - on rhythm slash represents single note slash

Misc Legend
-----------
 |  - bar
||  - double bar
||o - repeat start
o|| - repeat end
*|  - double bar (ending)
 :  - bar (freetime)
 $  - Segno
 &  - Coda
Tempo markers -  = BPM(8/16=s8/s16), where s8 = swing 8ths, s16 = swing 16ths

Tap to rate this tab
# A B C D E F G H I J K L M N O P Q R S T U V W X Y Z