Song name
# A B C D E F G H I J K L M N O P Q R S T U V W X Y Z

Anthrax - Gung Ho tab

#----------------------------------PLEASE NOTE---------------------------------#
#This file is the author's own work and represents their interpretation of the #
#song. You may only use this file for private study, scholarship, or research. #
#------------------------------------------------------------------------------#

GUNG-HO
As recorded by ANTHRAX
(From the 1985 Album SPREADING THE DISEASE)

Transcribed by Russ Elton (webmaster@abysslord.com)
	

Words and Music by ANTHRAX
Arranged by Mike Brow (warlockmb2000@yahoo.com)

Gtr I (E A D G B E) - 'Untitled'
Gtr II (E A D G B E) - 'Untitled'

    Fast Rock Q=220
   4/4
    Gtrs I, II
      PM--------|   PM--------|     PM--------|
    E S S S S S S E S S S S S S   E S S S S S S E Q  E 12x     H    H
||------------------------------|-----------------------||-||------------|
||o-----------------------------|----------------------o||-||o-----------|
||------------------------------|-----------------------||-||------------|
||------------------------------|---------------5-4-----||-||------------|
||o-2-------------3-------------|-6-------------3-2--5-o||-||o-5----6----|
||--0-0-0-0-0-0-0-1-0-0-0-0-0-0-|-4-0-0-0-0-0-0------3--||-||--3----4----|


                      PM------------------------------------------|
  H    H     4x     E S S S S S S S S S S S S S S   S S S S S S S S E E E E   4x
|------------||-||--------------------------------|---------------------------||
|-----------o||-||o-------------------------------|--------------------------o||
|------------||-||--------------------------------|---------------------------||
|------------||-||--------------------------------|---------------------------||
|-7----8----o||-||o-2-----------------------------|-----------------5-4-5-6--o||
|-5----6-----||-||--0-0-0-0-0-0-0-0-0-0-0-0-0-0-0-|-0-0-0-0-0-0-0-0-3-2-3-4---||


      PM--------|   PM--------|     PM--------|
    E S S S S S S E S S S S S S   E S S S S S S S E. S E.  4x     Q  H.
||------------------------------|--------------------------||-||-----------|
||o-----------------------------|-------------------------o||-||o----------|
||------------------------------|--------------------------||-||-----------|
||------------------------------|--------------------------||-||-----------|
||o-----------------------------|---------------7-7--7-7--o||-||o-2--2-----|
||--8-5-5-5-5-5-5-8-5-5-5-5-5-5-|-8-5-5-5-5-5-5-5-5--5-5---||-||--0--0-----|


   Q   H.        Q  H.         Q   H.
|--------------|------------|--------------|
|--------------|------------|--------------|
|--------------|------------|--------------|
|--9---9-------|------------|--9---9-------|
|--7---7-------|-2--2-------|--7---7-------|
|--------------|-0--0-------|--------------|
|
| Gtr II
|  ~~~~~~~                     ~~~~~~~
|  Q   H.        Q  H.         Q   H.
|-11--11-------|------------|-11--11-------|
|--------------|------------|--------------|
|--------------|------------|--------------|
|--------------|------------|--------------|
|--------------|-2--2-------|--------------|
|--------------|-0--0-------|--------------|


  Q  H.         Q   H.        W          W
|------------|--------------|----------|-----------||
|------------|--------------|----------|----------o||
|------------|--------------|----------|-----------||
|------------|--9---9-------|-9S=======|=6\--------||
|-2--2-------|--7---7-------|-7S=======|=4\-------o||
|-0--0-------|--------------|----------|-----------||
|
|               ~~~~~~~
| Q  H.         Q   H.        W             W
|------------|-11--11-------|----------|-----------||
|------------|--------------|-8S=======|====4\----o||
|------------|--------------|----------|-----------||
|------------|--------------|----------|-----------||
|-2--2-------|--------------|----------|----------o||
|-0--0-------|--------------|----------|-----------||


    Gtrs I, II
      PM------------------------------------------|
    E S S S S S S S S S S S S S S   S S S S S S S S E E E E  4x
||--------------------------------|--------------------------||
||o-------------------------------|-------------------------o||
||--------------------------------|--------------------------||
||--------------------------------|--------------------------||
||o-2-----------------------------|-----------------5-4-5-6-o||
||--0-0-0-0-0-0-0-0-0-0-0-0-0-0-0-|-0-0-0-0-0-0-0-0-3-2-3-4--||


        PM--------|   PM--------|
      E S S S S S S E S S S S S S
|-||--------------------------------|
|-||o-------------------------------|
|-||--------------------------------|
|-||--------------------------------|
|-||o-------------------------------|
|-||--8-5-5-5-5-5-5-8-5-5-5-5-5-5---|


  Gtr I
    PM--------|
  E S S S S S S S E. S E.  4x     Q  H.
|--------------------------||-||-------------|
|-------------------------o||-||o------------|
|--------------------------||-||-------------|
|--------------------------||-||-------------|
|---------------7-7--7-7--o||-||o-2--2-------|
|-8-5-5-5-5-5-5-5-5--5-5---||-||--0--0-------|
|
| Gtr II
|   PM--------|
| E S S S S S S S E. S E.  4x     Q  H.
|--------------------------||-||-------------|
|-------------------------o||-||o------------|
|--------------------------||-||-------------|
|--------------------------||-||-------------|
|---------------7-7--7-7--o||-||o-2--2-------|
|-8-5-5-5-5-5-5-5-5--5-5---||-||--0--0-------|


   Q   H.        Q  H.         Q   H.
|--------------|------------|------------|
|--------------|------------|------------|
|--------------|------------|------------|
|--9---9-------|------------|--9---9-----|
|--7---7-------|-2--2-------|--7---7-----|
|--------------|-0--0-------|------------|
|
|  ~~~~~~~                     ~~~~~~~
|  Q   H.        Q  H.         Q   H.
|-11--11-------|------------|-11--11-----|
|--------------|------------|------------|
|--------------|------------|------------|
|--------------|------------|------------|
|--------------|-2--2-------|------------|
|--------------|-0--0-------|------------|


                             1.
  Q  H.         Q   H.        W          W
|------------|--------------|----------|--------||
|------------|--------------|----------|-------o||
|------------|--------------|----------|--------||
|------------|--9---9-------|-9S=======|=6\-----||
|-2--2-------|--7---7-------|-7S=======|=4\----o||
|-0--0-------|--------------|----------|--------||
|
|               ~~~~~~~
| Q  H.         Q   H.        W          W
|------------|-11--11-------|----------|--------||
|------------|--------------|-8S=======|=4\----o||
|------------|--------------|----------|--------||
|------------|--------------|----------|--------||
|-2--2-------|--------------|----------|-------o||
|-0--0-------|--------------|----------|--------||


  2.
                                PM--------|     PM--------|
  W          +W             S S S S S S S S S S S S S S S S
|----------|------------||-----------------------------------|
|----------|------------||o----------------------------------|
|----------|------------||-----------------------------------|
|-9--------|-(9)--------||--2h4-------------2h4--------------|
|-7--------|-(7)--------||o-0h2-2-2-2-2-2-2-0h2-2-2-2-2-2-2--|
|-0--------|-(0)--------||-----------------------------------|
|
|                               PM--------|     PM--------|
| W          +W             S S S S S S S S S S S S S S S S
|----------|------------||-----------------------------------|
|----------|------------||o----------------------------------|
|----------|------------||-----------------------------------|
|-9--------|-(9)--------||--2h4-------------2h4--------------|
|-7--------|-(7)--------||o-0h2-2-2-2-2-2-2-0h2-2-2-2-2-2-2--|
|-0--------|-(0)--------||-----------------------------------|


  Gtrs I, II
      PM--------|
  S S S S S S S S E Q  E  3x
|-------------------------||
|------------------------o||
|-------------------------||
|-2h4-------------7-9--7--||
|-0h2-2-2-2-2-2-2-5-7--5-o||
|-------------------------||


      PM--------|     PM--------|
  S S S S S S S S S S S S S S S S   E. E. E. E. E E
|---------------------------------|------------------|
|---------------------------------|------------------|
|---------------------------------|------------------|
|-2h4-------------2h4-------------|-9--7--5--7--5-2--|
|-0h2-2-2-2-2-2-2-0h2-2-2-2-2-2-2-|-7--5--3--5--3-0--|
|---------------------------------|------------------|


        PM--------|     PM--------|       PM--------|
    S S S S S S S S S S S S S S S S   S S S S S S S S E Q  E  3x
||----------------------------------|-------------------------||
||o---------------------------------|------------------------o||
||----------------------------------|-------------------------||
||--2h4-------------2h4-------------|-2h4-------------7-9--7--||
||o-0h2-2-2-2-2-2-2-0h2-2-2-2-2-2-2-|-0h2-2-2-2-2-2-2-5-7--5-o||
||----------------------------------|-------------------------||


      PM--------|     PM--------|
  S S S S S S S S S S S S S S S S   E. E. E. E. E E   W          +W
|---------------------------------|-----------------|----------|--------|
|---------------------------------|-----------------|----------|--------|
|---------------------------------|-----------------|----------|--------|
|-2h4-------------2h4-------------|-9--7--5--7--5-2-|-4--------|-(4)----|
|-0h2-2-2-2-2-2-2-0h2-2-2-2-2-2-2-|-7--5--3--5--3-0-|-2--------|-(2)----|
|---------------------------------|-----------------|----------|--------|


      PM------------------------------------------|
    E S S S S S S S S S S S S S S   S S S S S S S S E E E E  4x
||--------------------------------|--------------------------||
||o-------------------------------|-------------------------o||
||--------------------------------|--------------------------||
||--------------------------------|--------------------------||
||o-2-----------------------------|-----------------5-4-5-6-o||
||--0-0-0-0-0-0-0-0-0-0-0-0-0-0-0-|-0-0-0-0-0-0-0-0-3-2-3-4--||


        PM--------|   PM--------|
      E S S S S S S E S S S S S S
|-||--------------------------------|
|-||o-------------------------------|
|-||--------------------------------|
|-||--------------------------------|
|-||o-------------------------------|
|-||--8-5-5-5-5-5-5-8-5-5-5-5-5-5---|


  Gtr I
    PM--------|
  E S S S S S S S E. S E.  4x     Q  H.
|--------------------------||-||-------------|
|-------------------------o||-||o------------|
|--------------------------||-||-------------|
|--------------------------||-||-------------|
|---------------7-7--7-7--o||-||o-2--2-------|
|-8-5-5-5-5-5-5-5-5--5-5---||-||--0--0-------|
|
| Gtr II
|   PM--------|
| E S S S S S S S E. S E.  4x     Q  H.
|--------------------------||-||-------------|
|-------------------------o||-||o------------|
|--------------------------||-||-------------|
|--------------------------||-||-------------|
|---------------7-7--7-7--o||-||o-2--2-------|
|-8-5-5-5-5-5-5-5-5--5-5---||-||--0--0-------|


   Q   H.        Q  H.         Q   H.
|--------------|------------|------------|
|--------------|------------|------------|
|--------------|------------|------------|
|--9---9-------|------------|--9---9-----|
|--7---7-------|-2--2-------|--7---7-----|
|--------------|-0--0-------|------------|
|
|  ~~~~~~~                     ~~~~~~~
|  Q   H.        Q  H.         Q   H.
|-11--11-------|------------|-11--11-----|
|--------------|------------|------------|
|--------------|------------|------------|
|--------------|------------|------------|
|--------------|-2--2-------|------------|
|--------------|-0--0-------|------------|


                             1.
  Q  H.         Q   H.        W          W
|------------|--------------|----------|--------||
|------------|--------------|----------|-------o||
|------------|--------------|----------|--------||
|------------|--9---9-------|-9S=======|=6\-----||
|-2--2-------|--7---7-------|-7S=======|=4\----o||
|-0--0-------|--------------|----------|--------||
|
|               ~~~~~~~
| Q  H.         Q   H.        W          W
|------------|-11--11-------|----------|--------||
|------------|--------------|-8S=======|=4\----o||
|------------|--------------|----------|--------||
|------------|--------------|----------|--------||
|-2--2-------|--------------|----------|-------o||
|-0--0-------|--------------|----------|--------||


  2.
                            PM----------------------------|
  W          +W             S S S S S S S S S S S S S S S S   8x
|----------|------------||------------------------------------||
|----------|------------||o----------------------------------o||
|----------|------------||------------------------------------||
|-9--------|-(9)--------||------------------------------------||
|-7--------|-(7)--------||o----------------------------------o||
|-0--------|-(0)--------||--0-0-0-0-0-0-0-0-0-0-0-0-0-0-0-0---||
|
|                           PM----------------------------|
| W          +W             S S S S S S S S S S S S S S S S   8x
|----------|------------||------------------------------------||
|----------|------------||o----------------------------------o||
|----------|------------||------------------------------------||
|-9--------|-(9)--------||------------------------------------||
|-7--------|-(7)--------||o----------------------------------o||
|-0--------|-(0)--------||--0-0-0-0-0-0-0-0-0-0-0-0-0-0-0-0---||


  Gtrs I, II
  H    H      H    E E E E   +H     H      H    E E E E
|-----------|--------------|-------------|--------------|
|-----------|--------------|-------------|--------------|
|-----------|--------------|-------------|--------------|
|-----------|--------------|-------------|--------------|
|-5----6----|-7----8-7-6-5-|-(5)----6----|-7----8-7-6-7-|
|-3----4----|-5----6-5-4-3-|-(3)----4----|-5----6-5-4-5-|


  +H     H      H     E E E E   +H     H      H     E E Q
|-------------|---------------|-------------|--------------|
|-------------|---------------|-------------|--------------|
|-------------|---------------|-------------|--------------|
|-------------|---------------|-------------|--------------|
|-(7)----8----|-9----10-9-8-7-|-(7)----8----|-9----10-9-5--|
|-(5)----6----|-7-----8-7-6-5-|-(5)----6----|-7-----8-7-3--|


              TP           TP
  W          +W           +W           +W
|----------|------------|------------|--------|
|----------|------------|------------|--------|
|----------|------------|------------|--------|
|----------|------------|------------|--------|
|-5--------|-(5)--------|-(5)--------|-(5)----|
|-3--------|-(3)--------|-(3)--------|-(3)----|


  Slower Q=124
  H    Q  E S  S     E E E  E S  S S  S S  S S  S
|----------------||-------------------------------|
|-----------9----||o----------9-10-9---------9-10-|
|-------------11-||--9---9-11--------11-9-11------|
|----------------||----9--------------------------|
|----------------||o------------------------------|
|----------------||-------------------------------|


   E  S  S  E E  E.  S E S  S
|-------------9---------------|
|-12-12-12-12---12--10-9-9-10-|
|-----------------------------|
|-----------------------------|
|-----------------------------|
|-----------------------------|


   E  E  E  E S  S S  S  S  S E
|----12-------------------------|
|-12----12-10-9-10-9-10-12-10-9-|
|-------------------------------|
|-------------------------------|
|-------------------------------|
|-------------------------------|


 1.                        2.
                                          ~~~~~~~~~
   E S S E E Q.   S  S      E S S  E Q  E Q    +W
|-----------------------||-------------------|--------|
|-----------------9----o||-------------------|--------|
|-11----------------11--||-11-----------8-9--|-(9)----|
|----9-9-9-9-9----------||----9-9-11-9-------|--------|
|----------------------o||-------------------|--------|
|-----------------------||-------------------|--------|


    Q  Q  Q  Q    Q  Q  Q  Q    Q  Q  Q  Q    Q  Q  Q  Q    8x
||--------------|-------------|-------------|---------------||
||o-------------|-------------|-------------|--------------o||
||--------------|-------------|-------------|---------------||
||--6-----6-----|-6-----6-----|-6-----6-----|-6-----6-------||
||o-4-----4-----|-4-----4-----|-4-----4-----|-4-----4------o||
||--------------|-------------|-------------|---------------||



Duration Legend
---------------
W - whole; H - half; Q - quarter; E - 8th; S - 16th; T - 32nd; X - 64th; a - acciaccatura
+ - note tied to previous; . - note dotted; .. - note double dotted
Uncapitalized letters represent notes that are staccato (1/2 duration)
Irregular groupings are notated above the duration line
Duration letters will always appear directly above the note/fret number it represents the
duration for.  Duration letters with no fret number below them represent rests.  Multi-
bar rests are notated in the form Wxn, where n is the number of bars to rest for.  Low
melody durations appear below the staff

Tablature Legend
----------------
 h   - hammer-on
 p   - pull-off
 b   - bend
 pb  - pre-bend
 r   - bend release (if no number after the r, then release immediately)
 /\  - slide into or out of (from/to "nowhere")
 s   - legato slide
 S   - shift slide
 - natural harmonic
[n]  - artificial harmonic
n(n) - tapped harmonic
 ~   - vibrato
 tr  - trill
 T   - tap
 TP  - trem. picking
 PM  - palm muting
\n/  - tremolo bar dip; n = amount to dip
 \n  - tremolo bar down
 n/  - tremolo bar up
/n\  - tremolo bar inverted dip
 =   - hold bend; also acts as connecting device for hammers/pulls
 <> - volume swell (louder/softer)
 x   - on rhythm slash represents muted slash
 o   - on rhythm slash represents single note slash

Misc Legend
-----------
 |  - bar
||  - double bar
||o - repeat start
o|| - repeat end
*|  - double bar (ending)
 :  - bar (freetime)
 $  - Segno
 &  - Coda
Tempo markers -  = BPM(8/16=s8/s16), where s8 = swing 8ths, s16 = swing 16ths

Tap to rate this tab
# A B C D E F G H I J K L M N O P Q R S T U V W X Y Z