Song name
# A B C D E F G H I J K L M N O P Q R S T U V W X Y Z

Anyone - James Bond Theme tab

e-0-0--0-2-0-2--3-3--3-2-0-2------|-0-0--0-2-0-2--3-3--3-2-0-2---------------
b---------------------------------|------------------------------------------
g---------------------------------|------------------------------------------
d---------------------------------|------------------------------------------
a---------------------------------|------------------------------------------
e---------------------------------|------------------------------------------


e-0-3--11-10---3-6-7---3-5-3-2--------|--0-3--11-10---3-6-7---3-5-3-2--------
b------------------------------0-5-2--|------------------------------0-4-5---
g-------------------------------------|--------------------------------------
d-------------------------------------|--------------------------------------
a-------------------------------------|--------------------------------------
e-------------------------------------|--------------------------------------

e-0-0--0-2-0-2--3-3--3-2-0-2--|-0-0--0-2-0-2--3-3--3-2-0-2-------------------
b-----------------------------|----------------------------------------------
g-----------------------------|----------------------------------------------
d-----------------------------|----------------------------------------------
a-----------------------------|----------------------------------------------
e-----------------------------|----------------------------------------------

e-0-3--11-10---6-9--15-14---9-12--20-19----14--------------------------------
b------------------------------------------15--------------------------------
g------------------------------------------15--------------------------------
d----------------------------------------------------------------------------
a----------------------------------------------------------------------------
e----------------------------------------------------------------------------
Tap to rate this tab
# A B C D E F G H I J K L M N O P Q R S T U V W X Y Z