Guitaretab - guitar tabs
Song name
# A B C D E F G H I J K L M N O P Q R S T U V W X Y Z

Anyone - Oh Canada tab

Oh Canada

Tabbed By c.fence_musicman@hotmail.com

With Distortion For That Power Ballad Feel

E|-----------------------------------------|
B|-----------------------------------------|
G|-----------------------------------------|
D|--2--5-5-----0---2----3---5---7-----0----|
A|---------3-------------------------------|
E|-----------------------------------------|


E|--------------------------------------------------|
B|--------------------------------------------------|
G|--------------------------------------------------|
D|--2----4-----4---5------7--9---9----7-----7--5----|
A|--------------------------------------------------|
E|--------------------------------------------------|


E|--------------------------------------------------------------------------|
B|--------------------------------------------------------------------------|
G|--------------------------------------------------------------------------|
D|--0--2---3----2----0-------2-3-5---3----2-----3-5-7----5-----3------2---0-|
A|--------------------------------------------------------------------------|
E|--------------------------------------------------------------------------|

[ Tab from: http://www.guitaretab.com/a/anyone/169855.html ]
E|------------------------------------------------------------------------|
B|------------------------------------------------------------------------|
G|------------------------------------------------------------------------|
D|--0---2--3-----2---0-----2-3-5-3-2--2---0-----5--5--3----2---5----3-2-0-|
A|------------------------------------------------------------------------|
E|------------------------------------------------------------------------|


E|------------------------------------------|
B|------------------------------------------|
G|------------------------------------------|
D|--2---5----5---------3--3----7---7---0----|
A|---------------3--------------------------|
E|------------------------------------------|
-

E|--------------------------------------------|
B|--------------------------------------------|
G|--------------------------------------------|
D|--5--6-6-7---5---4-----2---0-----2---4------|
A|--------------------------------------------|
E|--------------------------------------------|


E|----------------------------------------------|
B|----------------------------------------------|
G|----------------------------------------------|
D|--5--10-10-7---3---2-----0---5-----9---10-----|
A|----------------------------------------------|
E|----------------------------------------------|
Related for Oh Canada tab