Guitaretab - guitar tabs
Song name
# A B C D E F G H I J K L M N O P Q R S T U V W X Y Z

Aphex Twin - Avril 14th tab

Main Riff: repeat four times...
e--4---------------0----------0-----
B----------2------------------0^h^2-
G--------------1------------1-------
D----------2------------2-----------
A------4----------------------------
E--0---------------4----------------

e-------------------7---5---4---0---
B----------2--(2)-------------------
G----------2---1--------------------
D------2------------4-------0-------
A--0----------------------------4---
E-----------------------0-----------

then this four times...
e--4---------4/s/7--------------4---
B---------------------------2-------
G-----------------------4-------4---
D------2----------------------------
A---------4--2------2---------------
E--0--------------------------------

e--4---------4/s/7--9-----------7---
B---------------------------0-------
G-----------------------------------
D------2----------------7-------7---
A---------4--2------0---------------
E--0--------------------------------

then this...
e---------------0---4---------------
B-------2---4-----------4-----------
G-----------------------------------
D-------4---6-----------6---4-------
A---------------2---------------4---
E---2-------------------------------

e---------------0---4---------------
B-------2---4-------------4---2-----
G-------------------------------1---
D-------4---6-----------6---4-------
A---------------2-------------------
E---2-------------------------------

e---------------0---4---------------
B-------2---4-----------4-----------
G---------------4-------------------
D-------4---6-----------6--4--2-----
A--------------------------------4--
E---2-------------------------------

e---------------0---4---------------
B-------2---4-------------4-------2-
G-------------------------------1---
D-------4---6-----------6---4-------
A---------------2-------------------
E---2-------------------------------

then repeat main riff four times...
then...

e---4--2--4--4---7-9-7-4--0----7----
B----------------5------------------
G---6-----6-------------------------
D---7-----4------6------------------
A-----------------------------------
E-------------------------0---------
[ Tab from: http://www.guitaretab.com/a/aphex-twin/114638.html ]
e---4--2--0--4---7-9------4------0--
B-----------------------------------
G-----------------------------------
D---2-----6------6-----4------4-----
A---4-------------------------7-----
E---------7------0------------0-----

At this point it becomes difficult to
include both the harmony and melody
together, so here there both are separate:

Harmony
e---------------------------7-------
B------------7------------7---------
G----------9------------9-----------
D--------11-------------------------
A-----------------11----------------
E---9-------------------------------
Melody
e-----------------------------------
B------9-------------9----------9---
G-----------------------------------
D---6-----------4^6-------------6---
A-----------------------------------
E-----------------------------------


Harmony
e----------------9-------------12---
B-------------9-----------10--------
G-------9--------------9------------
D---7-------------------------------
A-------------------9---------------
E-----------------------------------
Melody
e---7-9-7--19--16-------------------
B-------------------------12--------
G-----------------------------------
D--------------------------9--------
A-----------------------------------
E-----------------------------------


Harmony
e---4------------------------7------
B-------5-----------------9---------
G----------6----------9-------------
D-------------7---6-----------------
A-----------------------------------
E-----------------------------------
Melody
e-----12---9------------------------
B---9----------------------------9--
G------------------11---------------
D-------------------------11--------
A--------------------------------11-
E-----------------------------------


Harmony
e----------------9--------12--------
B------------9-------------------9--
G---------9-----------9-------------
D---11------------------------------
A---9-------------7-----------------
E-----------------------------------
Melody
e---7---9-9----9--------------------
B-------------------------12-12-12--
G-----------------------------------
D---------11---11-------------------
A-----------------------------------
E-----------------------------------
Related for Avril 14th tab