Aphex Twin - Rhubarb tab

Standard of course, with a capo on the 2
credit goes to firstly James Devane for composing the piece 
http://www.jamesdevane.com/rhubarb_cover.htm
and secondly to some random youtuber who tabbed it. 
enjoy


  Em               D       Cmaj7
||-0--------------|----------------|
||-----0----------|-3--------------|
||----------------|-2---2---0------|
||-----2----------|-----0----------| x4
||----------------|---------3------|
||-0--------------|----------------|

  Em               x50707  Cmaj7
||-3---0----------|-7-------0------|
||-0--------------|-0-------0------|
||-0--------------|-----7---0------| x4
||----------------|---------2------|
||----------------|-5-------3------|
||-0--------------|----------------|

  Em               D       Cmaj7
||-0--------------|----------------|
||-----0----------|-3--------------|
||----------------|-2---2---0------|
||-----2----------|-----0----------| x4
||----------------|---------3------|
||-0--------------|----------------|

  Em               xx7707   Cmaj7    Em              xx5707   Cmaj7    
||-3---0----------|-7-------0------|-3---0----------|-7-------0------|
||-0--------------|-0-------0------|-0--------------|-0-------0------|
||-0--------------|-7---7---0------|-0--------------|-7---7---0------|
||----------------|-7-------2------|----------------|-5-------2------| x2
||----------------|---------3------|----------------|---------3------|
||-0--------------|----------------|-0--------------|----------------|

  Em
||----------------|----------------|
||-3-----1-----0--|---------0------|
||-0--------------|-2-0-----0------|
||----------------|-2-------2------| x2
||----------------|-0-------3------|
||-0--------------|----------------|

  Em
||-3-----0--------|---------0------|
||-3-----1-----0--|---------0------|
||-0--------------|-2-0-----0------|
||----------------|-2-------2------| x2
||----------------|-0-------3------|
||-0--------------|----------------|

  Em               xx7707   Cmaj7    Em              xx5707   Cmaj7    
||-3---0----------|-7-------0------|-3---0----------|-7-------0------|
||-0--------------|-0-------0------|-0--------------|-0-------0------|
||-0--------------|-7---7---0------|-0--------------|-7---7---0------|
||----------------|-7-------2------|----------------|-5-------2------| x1
||----------------|---------3------|----------------|---------3------|
||-0--------------|----------------|-0--------------|----------------|

  Em      harmonic  x00707  3xx000
||-3---0----------|-7-------0------|
||-0------H14-----|-0-------0------|
||-0--------------|-7---7---0------| x4
||----------------|----------------|
||----------------|-0--------------|
||-0--------------|---------3------|

  Em
||-----0----------|----------------|
||-3-----1-----0--|---------0------|
||-0--------------|-2-0-----0------|
||----------------|-2--------------| x4
||----------------|-0--------------|
||-0--------------|---------3------|

  Em               x50707  Cmaj7
||-3---0----------|-7-------0------|
||-0--------------|-0-------0------|
||-0--------------|-----7---0------| x4
||----------------|---------2------|
||----------------|-5-------3------|
||-0--------------|----------------|

  Em               D       Cmaj7
||-0--------------|----------------|
||-----0----------|-3--------------|
||----------------|-2---2---0------|
||-----2----------|-----0----------| x4
||----------------|---------3------|
||-0--------------|----------------|
Tap to rate this tab
 
# A B C D E F G H I J K L M N O P Q R S T U V W X Y Z