Song name
# A B C D E F G H I J K L M N O P Q R S T U V W X Y Z

Apocalyptica - Path tab

-----------------|-----------------|-----------------|-----------------|-3----|
-----------------|-----------------|-----------------|-1---------------|-3----|
-0---------------|-2---------------|-3---------------|-----------------|------|
-----------------|-----------------|-----------------|-------------0---|------|
-----------------|-----------------|-----------1-----|-3-----3-3-------|------|

-------------|-5---------------|-6---------------|-8------------------|-8-----|
-------------|-3---------------|-4---------------|--------------------|-------|
-------------|-----------------|-------------3---|-10-------------0---|-9-----|
-------------|-----------------|-----------------|--------------------|-------|
-------------|-----------------|-6-----6-6-------|--------------------|-------|
---5-5---0---|-5-----5-5---0---|-----------------|-10-----10-10-------|-10----|

-------------|-10----------------|-----------------|-----------------|--------|
-------------|-10----------------|-----------------|-----------------|--------|
-----------0-|-------------------|-----------------|-----------------|--------|
-------------|-0-----0-0-----0---|-5-5-5-5-5-5-5-5-|-5-5-5-5-5-5-5-5-|-1-1----|
-------------|-------------0-----|-5-5-5-5-5-5-5-5-|-5-5-5-5-5-5-5-5-|-1-1----|
---10-10-----|-------------------|-5-5-5-5-5-5-5-5-|-5-5-5-5-5-5-5-5-|-1-1----|

-------------|-----------------|----------------------------------------------|
-------------|-----------------|----------------------------------------------|
-------------|-5-5-5-5-7-7-7-7-|----------------------------------------------|
-1-1-1-1-1-1-|-5-5-5-5-7-7-7-7-|----------------------------------------------|
-1-1-1-1-1-1-|-3-3-3-3-5-5-5-5-|----------------------------------------------|
-1-1-1-1-1-1-|-----------------|----------------------------------------------|
Tap to rate this tab
# A B C D E F G H I J K L M N O P Q R S T U V W X Y Z