Song name
# A B C D E F G H I J K L M N O P Q R S T U V W X Y Z

Apocalyptica - Burn tab

This is my first tab.
I do not own any rights to this song.
Leave me comments and fixes so I can make it better.

             Burn
         Apocalyptica

          Tabbed  by
             NASA
             a.k.a
             Chris


4-4-4-4-4-3-4_-3h4p3-4-6-3\1---3-4-3-1-|
-----------------------------3---------|
---------------------------------------|
---------------------------------------|
---------------------------------------|
---------------------------------------|


4-4-4-4-4-3-4_-3h4p3-4-6-3\1---3-4-3-4-|
-----------------------------3---------|
---------------------------------------|
---------------------------------------|
---------------------------------------|
---------------------------------------|

4---3--1---1-|
---------3---|
-------------|
-------------|
-------------|
-------------|


-66-5-3-5-1_--88-77-55-00-875-3-3-3-5-6-|
3-----------33--------------------------|
----------------------------------------|
----------------------------------------|
----------------------------------------|
----------------------------------------|

-66-5-3-5-1_--88-77-55-00-875-3-6-5-6-5-|
3-----------33--------------------------|
----------------------------------------|
----------------------------------------|
----------------------------------------|
----------------------------------------|

5____1---1-3-4_-3-1-1__3-4-1-----|___
-------3-----------3-------------|
---------------------------------|
---------------------------------|
---------------------------------|
---------------------------------|

4-4-4-4-4-3-4_-3h4p3-4-6-3\1---3-4-3-1-|
-----------------------------3---------|
---------------------------------------|
---------------------------------------|
---------------------------------------|
---------------------------------------|


--4-4-3-4-3-4_-3h4p3-4-6-3\4---3-4-3-4-|
3----------------------------3---------|
---------------------------------------|
---------------------------------------|
---------------------------------------|
---------------------------------------|

-66-5-3-5-1_--88-77-55-00-875-3-3-3-5-6-|
3-----------33--------------------------|
----------------------------------------|
----------------------------------------|
----------------------------------------|
----------------------------------------|

-66-5-3-5-1_--88-77-55-00-875-3-6-5-6-5-|
3-----------33--------------------------|
----------------------------------------|
----------------------------------------|
----------------------------------------|
----------------------------------------|

---------------------------------------|
---------------------------------------|
---------------------------------------|
---------------------------------------|
10----9----7----9-----6----------------|
8-----7----5----7-----4----------------|
---------------------------------------|

-66-5-3-5-1_--88-77-55-00-875-3-3-3-5-6-|
3-----------33--------------------------|
----------------------------------------|
----------------------------------------|
----------------------------------------|
----------------------------------------|

-66-5-3-5-1_--88-77-55-00-875-3-6-5-6-5-|
3-----------33--------------------------|
----------------------------------------|
----------------------------------------|
----------------------------------------|
----------------------------------------|

-66-5-3-5-1_--88-77-55-00-875-3-3-3-5-6-|
3-----------33--------------------------|
----------------------------------------|
----------------------------------------|
----------------------------------------|
----------------------------------------|

-66-5-3-5-1_--88-77-55-00-875-3-6-5-6-5-|
3-----------33--------------------------|
----------------------------------------|
----------------------------------------|
----------------------------------------|
----------------------------------------|
Tap to rate this tab
# A B C D E F G H I J K L M N O P Q R S T U V W X Y Z