Song name
# A B C D E F G H I J K L M N O P Q R S T U V W X Y Z

Apulanta - Ei Yht??n Todistajaa tab

Apulanta - Ei yht??n todistajaa

|---------------------------------------------------|
|---------------------------------------------------|
|---------------------------------------------------|
|---------------------------0-0---------------------|
|--0--3-0-2-3------3-0-2-3------3-0-2-3-----3-2~~---|
|--------------3-3----------------------1-1---------|

s?r?:
|---------------------------------------------------|
|---------------------------------------------------|
|---------------------------------------------------|
|---------------------------0-0---------------------|
|--0--3-0-2-3------3-0-2-3------3-0-2-3-----3-0-2-3-|
|--------------3-3----------------------1-1---------|

|----------------------------------------------------------|
|----------------------------------------------------------|
|----------------------------------------------------------|
|-----------------------------0-0--------------------------|
|--0-0--3-0-2-3------3-0-2-3------3-0-2-3-----3-0-2-3-2-0--|
|---------------3-3----------------------1-1---------------|

  Am        C             Em         F
  T?n??n on p?iv? jolloin mieleni on mutaa
  Am         C             Em       F
  Amputoidut jalkani eiv?t k?skyst? futaa
  Am          C         Em          F
  Onni l?ytyy divarista taivaalta satelliitista
  Am           C           Em      F
  N?lk? kasvaa suuremmaksi kantajaansa

  Am           G            Dm         F
  Laimenna mut haalista mut poista kokonaan
  Am            G           Dm         F
  Ei saa j?tt?? yht??n todistajaa

|---------------------------------------------------|
|---------------------------------------------------|
|---------------------------------------------------|
|---------------------------0-0---------------------|
|--0--3-0-2-3------3-0-2-3------3-0-2-3-----3-0-2-3-|
|--------------3-3----------------------1-1---------|

|----------------------------------------------------------|
|----------------------------------------------------------|
|----------------------------------------------------------|
|-----------------------------0-0--------------------------|
|--0-0--3-0-2-3------3-0-2-3------3-0-2-3-----3-0-2-3-2-0--|
|---------------3-3----------------------1-1---------------|

  Am          C            Em          F
  Todellisuus nousee viel? kerran viem?reist?
  Am        C               Em            F
  Vuorovesi k??ntyy peitt?? alleen toisen meist?

  Am           G            Dm         F
  Laimenna mut haalista mut poista kokonaan
  Am            G           Dm         F
  Ei saa j?tt?? yht??n todistajaa
  Am            G            Dm          F
  Tehd??n t?st? voiton p?iv? j?ljet peitet??n
  Am             G            Dm         F
  Ja huomenna on toisenlainen s??

|---------------------------------------------------|
|---------------------------------------------------|
|---------------------------------------------------|
|---------------------------0-0---------------------|
|--0--3-0-2-3------3-0-2-3------3-0-2-3-----3-0-2-3-|
|--------------3-3----------------------1-1---------|

|----------------------------------------------------------|
|----------------------------------------------------------|
|----------------------------------------------------------|
|-----------------------------0-0--------------------------|
|--0-0--3-0-2-3------3-0-2-3------3-0-2-3-----3-0-2-3-2-0--|
|---------------3-3----------------------1-1---------------|

  Am           G            Dm         F
  Laimenna mut haalista mut poista kokonaan
  Am            G           Dm         F
  Ei saa j?tt?? yht??n todistajaa
  Am            G            Dm          F
  Tehd??n t?st? voiton p?iv? j?ljet peitet??n
  Am             G            Dm         F
  Ja huomenna on toisenlainen s??
  Am           G            Dm         F
  Yeah ye yeah yeah
  Am           G            Dm         F
  Yeah ye yeah yeah
  Am
  Yeah ye yeah Yeaaa
Tap to rate this tab
# A B C D E F G H I J K L M N O P Q R S T U V W X Y Z