Song name
# A B C D E F G H I J K L M N O P Q R S T U V W X Y Z

Aquabats - Meltdown tab

The Aquabats - Meltdown!

After Bass Intro

Also the Chorus:

  A        B    C      G      D      A
|--------------------------------------------|      |------------|
|--------------------------------------------|      |------------|
|o---------4/5--5-------------7-------------o|      |--8b9~-b8---|
|o--7-x8---4/5--5-x7---5-x8---7-x8---7-x8---o|(x2)  |------------|
|---7------2/3--3------5------5------7-------|      |------------|
|---5------------------3-------------5-------|      |------------|

Guitar 2:
|--------------------------------|
|--13------------------13--------|
|-----12-10-9-12----------12-----|
|----------------------------10--|
|--------------------------------|
|--------------------------------|


Verse:

Bass:
|-----------------------------------------------|
|-----------------------------------------------|
|-----------------------------------------------|
|------------------------------------------5-5--|
|-------------8-8----8-8------------4-4---------|
|--5-5----5-5------------5-5----5-5-------------|

Guitar:
|---5-5-x-5----5-5-x-5----5-5-x-5----5-5/7-7-----|
|---5-5-x-5----6-6-x-6----5-5-x-5----6-6/8-8-----|
|o--6-6-x-6----5-5-x-5----6-6-x-6----5-5/7-7----o|
|o----------------------------------------------o| (x7)
|------------------------------------------------|
|------------------------------------------------|

Repeat Chorus
Repeat Verse
Repeat Chorus

Solo:
|--------------------------------------------------------------------------------------|
|--------------------------------------------------------------------------------------|
|--------------------------------------------------------------------------------------|
|--7-7-5-5-7-7-5-5-7-7-5-5-7-7-5-5---10-10-9-9-10-10-9-9-10-10-9-9-10-10-9-9-----------|
|--------------------------------------------------------------------------------------|
|--------------------------------------------------------------------------------------|

|----------------------------------------------------------------------|
|----------------------------------------------------------------------|
|----------------------------------------------------------------------|
|--12-12-10-10-12-12-10-10-12-12-10-10-12-12-10-10---14~14~14~14~14~---|
|----------------------------------------------------------------------|
|----------------------------------------------------------------------|

Post-Solo
|--8b^--|
|--9b^--|
|--8b^--|
|-------|
|-------|
|-------|

Repeat Chorus
Repeat Solo

It's a fairly easy song to play - have fun!
Tap to rate this tab
# A B C D E F G H I J K L M N O P Q R S T U V W X Y Z