Guitaretab - guitar tabs
Song name
# A B C D E F G H I J K L M N O P Q R S T U V W X Y Z

Arch Enemy - Skeleton Dance tab

#----------------------------------PLEASE NOTE---------------------------------#
#This file is the author's own work and represents their interpretation of the #
#song. You may only use this file for private study, scholarship, or research. #
#------------------------------------------------------------------------------#

SKELETON DANCE
As recorded by Arch Enemy
(From the 2005 Album DOOMSDAY MACHINE)

Transcribed by SoggieMufin
	

Words and Music by Arch Enemy

Gtr I (C F Bb Eb G C) - 'Untitled'
Gtr II (C F Bb Eb G C) - 'Untitled'
Gtr III (C F Bb Eb G C) - 'Untitled'
Gtr IV (C F Bb Eb G C) - 'Untitled'

 Intro
  Free Time Q=140
  N.C.
 4/4           3/4
  Gtr I
  <
  ~~~~~~~       PM-------|
  Q  +H.        E  E E E Q      H.         E   E  +Q    E  E     Q     H
|-------------|-------------|-----------|--------------------|----------------|
|-------------|-------------|-----------|--------------------|----------------|
|-9--(9)------|-9--9-9-9-9--|-/14-------|-16--13-(13)--16-12-|-(12)-----------|
|-------------|-------------|-----------|--------------------|--14------------|
|-------------|-------------|-----------|--------------------|----------------|
|-------------|-------------|-----------|--------------------|--------12------|
|
| Gtr II
| W             H.              H.         H.                    H        Q
|-------------|-------------|-----------|--------------------|----------------|
|-------------|-------------|-----------|--------------------|----------------|
|-------------|-------------|-----------|--------------------|------------9---|
|-------------|-------------|-----------|--------------------|----------------|
|-------------|-------------|-----------|--------------------|------------7---|
|-------------|-------------|-----------|--------------------|----------------|
|
| Gtr III
|                                                                      >
| W             H.              H.         H.                    Q     H
|-------------|-------------|-----------|--------------------|----------------|
|-------------|-------------|-----------|--------------------|----------------|
|-------------|-------------|-----------|--------------------|-------/13------|
|-------------|-------------|-----------|--------------------|----------------|
|-------------|-------------|-----------|--------------------|----------------|
|-------------|-------------|-----------|--------------------|----------------|


                                     4/4
   +H.             Q.      E  +Q       +W
|---------------|-------------------|-------------------|
|---------------|---------12-(12)---|-(12)--------------|
|---------------|-------------------|-------------------|
|---------------|-------------------|-------------------|
|---------------|-------------------|-------------------|
|-(12)----------|-------------------|-------------------|
|
|   Q    Q   Q     Q    Q      E  E     H      +Q    Q
|---------------|-------------------|-------------------|
|---------------|-------------------|-------------------|
|--13---14--16--|-14---13-----13S14-|--14-----(14)s=10--|
|---------------|-------------------|-------------------|
|--11---12--14--|-12---11-----11S12-|--12-----(12)s==8--|
|---------------|-------------------|-------------------|


                               Q=146
                                 (E5)
 6/4                            4/4
   >
   H.          H.                 H.                          +E       E
|------------------------------|---------------------------------------------|
|------------------------------|---------------------------------------------|
|-13---------------------------|-14--------------------------(14)-----16-----|
|------------------------------|---------------------------------------------|
|------------------------------|---------------------------------------------|
|------------------------------|---------------------------------------------|
|
|                                 PM------------------------------------------
|         |---3----|  |--3--|
|  H      Q  Q     Q  Q  Q  Q     E   E   S   E   S   E   E    S   E      S
|------------------------------|---------------------------------------------|
|------------------------------|---------------------------------------------|
|--------13S14S===16S14S13S14--|---------------------------------------------|
|------------------------------|---------------------------------------------|
|--------11S12S===14S12S11S12--|-(2)-(2)-(2)-(2)-(2)-(2)-(2)--(2)-(2)----(2)-|
|-12---------------------------|-(0)-(0)-(0)-(0)-(0)-(0)-(0)--(0)-(0)----(0)-|


                                         F5
                                         Gtr I
   Q       E       Q          Q          E
|-------------------------------------------||
|-------------------------------------------||
|-13------16------12------------------------||
|-------------------------------------------||
|----------------------------------------3--||
|----------------------------15\---------1--||
|
|                                        Gtr II
|------------------------------------|
|  E   E   S   E      S   E   E   S   S  E
|-------------------------------------------||
|-------------------------------------------||
|-------------------------------------------||
|-------------------------------------------||
|-(2)-(2)-(2)-(2)----(2)-(2)-(2)-(2)-(2)-3--||
|-(0)-(0)-(0)-(0)----(0)-(0)-(0)-(0)-(0)-1--||


 Chorus
  $
  $$
      E5                      N.C.                  E5
  Gtrs I, II
      PM------------------|                         PM--------------|
  +E  E S E S E E S E S   E E E E E   +E  E E   +E  E S E S E E S E S
|-----------------------|---------------------|-----------------------|
|-----------------------|---------------------|-----------------------|
|-----------------------|---------------------|-----------------------|
|-----------------------|---------------------|-----------------------|
|-(3)-2-2-2-2-2-2-2-2-2-|-2-------------------|-----2-2-2-2-2-2-2-2-2-|
|-(1)-0-0-0-0-0-0-0-0-0-|-0-0-1-4-4b5r(4)-1-0-|-(0)-0-0-0-0-0-0-0-0-0-|


  N.C.                           E5
                       PM----|      PM------------|
  S S S S S S S S S E. S S S S   Q  S E S E E S E S
|------------------------------|--------------------|
|------------------------------|--------------------|
|-2p1---1---1-2p1---1----------|--------------------|
|-----3---3-------3------------|--------------------|
|------------------------------|-2--2-2-2-2-2-2-2-2-|
|----------------------1-1-1-1-|-0--0-0-0-0-0-0-0-0-|


    N.C.
  PM
  E E E E E   +E  E   E    +H.       E E   +Q    E E +Q.   E
|-----------------------|----------------|-------------------|
|-----------------------|----------------|-------------------|
|-------------------/10-|-(10)------12-9-|-(9)--12-8-(8)---9-|
|-----------------------|----------------|-------------------|
|-2------------------/8-|--(8)------10-7-|-(7)--10-6-(6)---7-|
|-0-0-1-4-4b5r(4)-1-----|----------------|-------------------|


       E5                    N.C.                    E5
       PM------------------|                         PM--------------|
  +E   E S E S E E S E S   E E E E E   +E  E E   +E  E S E S E E S E S
|------------------------|---------------------|-----------------------|
|------------------------|---------------------|-----------------------|
|-(9)\-------------------|---------------------|-----------------------|
|------------------------|---------------------|-----------------------|
|-(7)\-2-2-2-2-2-2-2-2-2-|-2-------------------|-----2-2-2-2-2-2-2-2-2-|
|------0-0-0-0-0-0-0-0-0-|-0-0-1-4-4b5r(4)-1-0-|-(0)-0-0-0-0-0-0-0-0-0-|


                                           To Coda
  N.C.                           E5
  Gtr I
                       PM----|      PM------------|
  S S S S S S S S S E. S S S S   Q  S E S E E S E S
|------------------------------|--------------------|
|-5p4---4---4-5p4---4----------|--------------------|
|-----5---5-------5------------|--------------------|
|------------------------------|--------------------|
|------------------------------|-2--2-2-2-2-2-2-2-2-|
|----------------------1-1-1-1-|-0--0-0-0-0-0-0-0-0-|
|
| Gtr II
|                      PM----|      PM------------|
| S S S S S S S S S E. S S S S   Q  S E S E E S E S
|------------------------------|--------------------|
|------------------------------|--------------------|
|-2p1---1---1-2p1---1----------|--------------------|
|-----3---3-------3------------|--------------------|
|------------------------------|-2--2-2-2-2-2-2-2-2-|
|----------------------1-1-1-1-|-0--0-0-0-0-0-0-0-0-|


    N.C.            (F)             (G)(E)        (G)(D#)      B5
  PM
  E E E E E   +E  E   E    +H.       E  E    +Q    E  E  +Q.   E
|-----------------------|-----------------|----------------------||
|-----------------------|-----------------|----------------------||
|-------------------/14-|-(14)------16-13-|-(13)--16-12-(12)-----||
|-----------------------|-----------------|--------------------4-||
|-2-----------------/12-|-(12)------14-11-|-(11)--14-10-(10)---2-||
|-0-0-1-4-4b5r(4)-1-----|-----------------|----------------------||
|
| PM
| E E E E E   +E  E   E    +H.       E  E    +Q    E  E  +Q.   E
|-----------------------|-----------------|----------------------||
|-----------------------|-----------------|----------------------||
|-------------------/10-|-(10)------12--9-|--(9)--12--8--(8)-----||
|-----------------------|-----------------|--------------------4-||
|-2------------------/8-|--(8)------10--7-|--(7)--10--6--(6)---2-||
|-0-0-1-4-4b5r(4)-1-----|-----------------|----------------------||


 Verse
      N.C.
  Gtrs I, II
      PM  PM  PM  PM    PM  PM              PM  PM  PM  PM     PM  PM----|
  +E  E E E E E E E   E E E E E E E E   +E  E E E E E E E    E E E E E E E E
|-------------------|-----------------|-------------------|------------------|
|-------------------|-----------------|-------------------|------------------|
|-------4---5---4---|-5---4---4-5-4---|-------2---4---5---|-/7---5---4-5-4---|
|-(4)---------------|-----------------|-------------------|------------------|
|-(2)-2---2---2---2-|---2---2-------0-|-(0)-0---0---0---0-|----0---0-------2-|
|-------------------|-----------------|-------------------|------------------|


  Gtr I
      PM  PM  PM  PM    PM  PM
  +E  E E E E E E E   E E E E E E E E
|-------------------|-----------------|
|-------------------|-----------------|
|-------4---5---4---|-5---4---4-5-4---|
|-------------------|-----------------|
|-(2)-2---2---2---2-|---2---2-------0-|
|-------------------|-----------------|
|
| Gtr II
|     PM  PM  PM  PM    PM  PM
| +E  E E E E E E E   E E E E E E E E
|-------------------|-----------------|
|-------------------|-----------------|
|-------4---5---4---|-5---4---4-5-4---|
|-------------------|-----------------|
|-(2)-2---2---2---2-|---2---2-------0-|
|-------------------|-----------------|


                      (Bb)  (A)  Bb5/FA5/N.C.
      PM  PM  PM  PM      PM   PM   PM
  +E  E E E E E E E     E E  E E  E E  E E
|-------------------|----------------------|
|-------------------|-/15---14-------------|
|-------2---4---5---|------------15---14---|
|-------------------|----------------------|
|-(0)-0---0---0---0-|-----0----0----0----2-|
|-------------------|----------------------|
|
|     PM  PM  PM  PM      PM   PM   PM
| +E  E E E E E E E     E E  E E  E E  E E
|-------------------|----------------------|
|-------------------|----------------------|
|-------2---4---5---|-/15---14-------------|
|-------------------|------------15---14---|
|-(0)-0---0---0---0-|-----0----0----0----2-|
|-------------------|----------------------|


  Gtrs I, II
                                                                     PM--|
  +E  E E E E E E E   E E E E E E E E   +E  E E E E E E E    E E E E E E E E
|-------------------|-----------------|-------------------|------------------|
|-------------------|-----------------|-------------------|------------------|
|-------4---5---4---|-5---4---4-5-4---|-------2---4---5---|-/7---5---4-5-4---|
|-------------------|-----------------|-------------------|------------------|
|-(2)-2---2---2---2-|---2---2-------0-|-(0)-0---0---0---0-|----0---0-------2-|
|-------------------|-----------------|-------------------|------------------|


  +E  E E E E E E E   E E E E E Q.
|-------------------|------------------||
|-------------------|------------------||
|-------4---5---4---|-5---4---5-4tr5---||
|-------------------|------------------||
|-(2)-2---2---2---2-|---2---2----------||
|-------------------|------------------||


                                        D.S.
                                        D.S.
                            E5              F5
                                      2/4
                            PM----|
  E E E E E E E E   E E E E E E E E    Q.   E
|-----------------|-----------------||---------|
|-----------------|-----------------||---------|
|-----4-3---------|-2-1-------------||---------|
|---5-----4-----3-|-----2-----------||---------|
|-7---------5-4---|-------3-2-2-2-2-||------3--|
|-----------------|---------0-0-0-0-||------1--|


  &
  E5N.C.
 4/4
  PM                    PM     PM     PM        PM
  E E E E E   +E  E E   E E  E E E  E E  E    E E  E  E H
|---------------------|--------------------|-----------------||
|---------------------|--------------------|-----------------||
|---------------------|--------------------|-----------------||
|---------------------|-----10-----11------|-12------13------||
|-2-------------------|---8------9------10-|------11---------||
|-0-0-1-4-4b5r(4)-1-0-|-0------0------0----|----0------------||


 Bridge
  N.C.
  Gtr IV
  E  E   E    E   E  E   E    E     E  E    E    E   E  E    E    E
|---------------------------------|------------------------------------|
|---------------------------------|------------------8-----------------|
|---------------------------------|------------------------------------|
|--------9-------------------11---|-8------11---12-----12---11---------|
|-9-10-------10---9-10---9--------|---10-------------------------10----|
|---------------------------------|------------------------------------|
|
| Gtrs I, II
| E  S S S S  S S E  S S S S  S S   E  S S  S S  S S E  S S  S S  S S
|---------------------------------|------------------------------------|
|---------------------------------|------------------------------------|
|---------------------------------|------------------------------------|
|---------------------------------|------------------------------------|
|---------------------------------|------------------------------------|
|-2--2-2-2-2--2-2-2--2-2-2-2--2-2-|-2--2-2--2-2--2-2-2--2-2--2-2--2-2--|


   E  E   E    E   E  E   E    E      E  E   E    E   E  E    E   E
|----------------------------------|---------9-------------------------|
|----------------------------------|-12----------12--------------------|
|------------------9---------------|----11-----------------------------|
|---------9---11-----12---9---11---|-----------------------------------|
|----10----------------------------|------------------9----------------|
|-12-------------------------------|--------------------12---10---9----|
|
|  E  S S S S  S S E  S S S S  S S    E  S S S S  S S E  S S  S S S S
|----------------------------------|-----------------------------------|
|----------------------------------|-----------------------------------|
|----------------------------------|-----------------------------------|
|----------------------------------|-----------------------------------|
|----------------------------------|-----------------------------------|
|--2--2-2-2-2--2-2-2--2-2-2-2--2-2-|--2--2-2-2-2--2-2-2--2-2--2-2-2-2--|


   E E   E    E   E E    E   E     E E    E    E   E  E   E    E
|--------------------------------|----------------------------------|
|--------------------------------|-----------------8----------------|
|--------------------------------|----------------------------------|
|-11-----9-------------------9---|-8----------12-----12---9---------|
|----9-------10---9--------------|---9---10-------------------10----|
|-------------------9---10-------|----------------------------------|
|
|  E S S S S  S S E S S  S S S S   E S S  S S  S S E  S S S S  S S
|--------------------------------|----------------------------------|
|--------------------------------|----------------------------------|
|--------------------------------|----------------------------------|
|--------------------------------|----------------------------------|
|--------------------------------|----------------------------------|
|--2-2-2-2-2--2-2-2-2-2--2-2-2-2-|-2-2-2--2-2--2-2-2--2-2-2-2--2-2--|


  E  E    E   E    E  E   E    E      E  E    E   E   E  E    E   E
|----------------------------------|-----------------------------------|
|----------------------------------|-12--------------------------------|
|----------------------------------|----11-----------------------------|
|-------------------------9---11---|---------11---9--------------------|
|-9-----------9---11-10------------|------------------9----------------|
|---10---12------------------------|--------------------12---10---9----|
|
| E  S S  S S S S  E  S S S S  S S    E  S S  S S S S E  S S  S S S S
|----------------------------------|-----------------------------------|
|----------------------------------|-----------------------------------|
|----------------------------------|-----------------------------------|
|----------------------------------|-----------------------------------|
|----------------------------------|-----------------------------------|
|-2--2-2--2-2-2-2--2--2-2-2-2--2-2-|--2--2-2--2-2-2-2-2--2-2--2-2-2-2--|


  F#5                 N.C.(G5)
  E E E E E  E E  E    E E  E  E  E E  E  E
|-------------------|-----------------------|
|-------------------|-----------------------|
|-------------------|-----------------------|
|-----9-8-----------|------11-12-11-9-11----|
|---9-----9---------|----9---------------12-|
|-9---------10-9-10-|-10--------------------|
|
| W                    W
|-------------------|-----------------------|
|-------------------|-----------------------|
|-------------------|-----------------------|
|-4-----------------|--5--------------------|
|-4-----------------|-----------------------|
|-2-----------------|--3--------------------|


  N.C.(A#5)                N.C.(C#5)
   E  E  E  E  E  E E  E    E  E  E E  E  E  E  E
|------------------------|------------------------|
|------------------------|-12---------------------|
|------------------------|----11------------------|
|----------11-------9-11-|-------11-9-------------|
|----------------10------|------------10----------|
|-12-12-12----12---------|---------------12-10-12-|
|
|  W                        W
|------------------------|------------------------|
|------------------------|------------------------|
|--3---------------------|--6---------------------|
|------------------------|------------------------|
|--1---------------------|--4---------------------|
|------------------------|------------------------|

[ Tab from: http://www.guitaretab.com/a/arch-enemy/77744.html ]
  F#5                   N.C.(G5)
   E E E  E  E  E E E   E  E  E  E   E   E  E E
|---------------------|------------(10)---------|
|---------------------|-------------------------|
|---------------------|-------------------------|
|-11---8------------9-|-9----11-12---x--12-11---|
|----9---10----10-8---|-----------------------9-|
|-----------12--------|---12--------------------|
|
|  W                    W
|---------------------|-------------------------|
|---------------------|-------------------------|
|---------------------|-------------------------|
|--4------------------|-5-----------------------|
|--4------------------|-------------------------|
|--2------------------|-3-----------------------|


  N.C.(A#5)               N.C.(C#5)
   E  E E  E  E  E E  E    E  E E  E  E  E E  E
|-----------------------|-----------------------|
|-----------------------|-12--------------------|
|-----------------------|-----------------------|
|-----5-9-11-------9-11-|----11-9---------------|
|----10---------10------|---------10----10-9-10-|
|-12---------12---------|------------12---------|
|
|  W                       W
|-----------------------|-----------------------|
|-----------------------|-----------------------|
|--3--------------------|--6--------------------|
|-----------------------|-----------------------|
|--1--------------------|--4--------------------|
|-----------------------|-----------------------|


   Interlude
    (Em)              (Dadd2)           (Cadd2)           (Bsus4)
   4/4
    Gtr I
    E E E E E E E E   E E E E E E E E   E E E E E E E E   E E E E E E E E   3x
||------------------|-----------------|-----------------|-------------------||
||o-----8-----8---8-|-----8-----8---8-|-----7-----7---7-|-----8---7---7-8--o||
||------------------|-----------------|-----------------|-------------------||
||----9-----9-------|---7-----7-------|---5-----5-------|-------------------||
||o-7-----7-----7---|-5-----5-----5---|-3-----3-----3---|------------------o||
||------------------|-----------------|-----------------|-7-7---7---7-------||
|
|   Gtr II
|   E E E E E E E E   E E E E E E E E   E E E E E E E E   E E E E E E E E   3x
||------------------|-----------------|-----------------|-------------------||
||o-----------------|-----------------|-----------------|-----5---4---4-5--o||
||------9-----9---9-|-----9-----9---9-|-----7-----7---7-|-------------------||
||----9-----9-------|---7-----7-------|---5-----5-------|-------------------||
||o-7-----7-----7---|-5-----5-----5---|-3-----3-----3---|-2-2---2---2------o||
||------------------|-----------------|-----------------|-------------------||


 Solo
  (Em)                 (Dadd2)                  (Cadd2)
  Gtr III
  E E E E E  E  E  E    E  E  E  E  Q.      E    E  E  E  E  E  E  E E
|--------------------|---------------------17-|-17s15-15s14-14s12-12s7-|
|-5s7-7s8-8s10-10s12-|-12s15-15s17-17---------|------------------------|
|--------------------|------------------------|------------------------|
|--------------------|------------------------|------------------------|
|--------------------|------------------------|------------------------|
|--------------------|------------------------|------------------------|
|
| Gtr I
| E E E E E  E  E  E    E  E  E  E  E  E E  E    E  E  E  E  E  E  E E
|--------------------|------------------------|------------------------|
|-----8------8-----8-|--------8--------8----8-|--------7--------7----7-|
|--------------------|------------------------|------------------------|
|---9-----9----------|-----7--------7---------|-----5--------5---------|
|-7-----7-------7----|--5--------5-------5----|--3--------3--------3---|
|--------------------|------------------------|------------------------|
|
| Gtr II
| E E E E E  E  E  E    E  E  E  E  E  E E  E    E  E  E  E  E  E  E E
|--------------------|------------------------|------------------------|
|--------------------|------------------------|------------------------|
|-----9------9-----9-|--------9--------9----9-|--------7--------7----7-|
|---9-----9----------|-----7--------7---------|-----5--------5---------|
|-7-----7-------7----|--5--------5-------5----|--3--------3--------3---|
|--------------------|------------------------|------------------------|


  B5
  E  E  E  E  E  E  E  E    S  S  S  S  S  S  S  S  H
|-7s10-10-12-10-12-10-12-|-10-12-10-12-10-12-10-12-10tr12-------|
|------------------------|--------------------------------------|
|------------------------|--------------------------------------|
|------------------------|--------------------------------------|
|------------------------|--------------------------------------|
|------------------------|--------------------------------------|
|
| E  E  E  E  E  E  E  E    E     E     E     E     E     E E E
|------------------------|--------------------------------------|
|------------------------|--------------------------------------|
|------------------------|--------------------------------------|
|------------------------|--------------------------------------|
|-9--9--9--9--9--9--9--9-|--9-----9-----9-----9-----9-----9-9-9-|
|-7--7--7--7--7--7--7--7-|--7-----7-----7-----7-----7-----7-7-7-|


  F#5                    D/F#
   H        E     +E   E  E       +H          E     +E   E  E
|------------------------------|---------------------------16-|
|-17b19----17b19-(17)-14-17b19-|-(17)pb19----17b19-(17)-14----|
|------------------------------|------------------------------|
|------------------------------|------------------------------|
|------------------------------|------------------------------|
|------------------------------|------------------------------|
|
| Gtrs I, II
|  H..                    E       +W
|------------------------------|------------------------------|
|------------------------------|------------------------------|
|------------------------------|------------------------------|
|-11---------------------12----|-(12)-------------------------|
|--9----------------------9----|--(9)-------------------------|
|------------------------------|------------------------------|


  D5                       E5
   +H         E     +E   E  E    +H      +E   E  E  E
|-(16)b17----16b17-(16)-14----|--------------17-------|
|--------------------------15-|-(15)----(15)----15-14-|
|-----------------------------|-----------------------|
|-----------------------------|-----------------------|
|-----------------------------|-----------------------|
|-----------------------------|-----------------------|
|
|   H..                     E    +W
|-----------------------------|-----------------------|
|-----------------------------|-----------------------|
|-----------------------------|-----------------------|
|---7-----------------------9-|--(9)------------------|
|---5-----------------------7-|--(7)------------------|
|-----------------------------|-----------------------|


  A5                  D5
   +H       +E   E  E  E    +W
|---------------17-------|---------|
|-(14)-----(14)----14-13-|-(13)----|
|------------------------|---------|
|------------------------|---------|
|------------------------|---------|
|------------------------|---------|
|
|   H..                E    +W
|------------------------|---------|
|------------------------|---------|
|------------------------|---------|
|----------------------7-|--(7)----|
|---7------------------5-|--(5)----|
|---5--------------------|---------|


  B5                 C#5          N.C.
   H       +E   E  E  E       +H         +H
|--------------------------|-----------------------|
|--------------------------|-----------------------|
|-14------(14)-16-14-16b18-|-(16)-------(16)-------|
|--------------------------|-----------------------|
|--------------------------|-----------------------|
|--------------------------|-----------------------|
|
|  H..                E       +E  E E E   E  E E E
|--------------------------|-----------------------|
|--------------------------|-----------------------|
|--------------------------|-----------------------|
|--4------------------6----|--(6)------------------|
|--2------------------4----|--(4)-2-------2--------|
|--------------------------|--------5-4------5-4-0-|


  F#5                    D/F#
   H        E     +E   E  E
|------------------------------|
|-17b19----17b19-(17)-14-17b19-|
|------------------------------|
|------------------------------|
|------------------------------|
|------------------------------|
|
|  H..                    E
|------------------------------|
|------------------------------|
|------------------------------|
|------------------------------|
|--4----------------------5----|
|--2----------------------2----|


   +E       S     S  S     S  S     S  S  S     S  S     S  S  S  S
|----------------14-------14-------14-14-------14-------14-14-14----|
|-(17)pb19-17b19----17b19----17b19-------17b19----17b19----------17-|
|-------------------------------------------------------------------|
|-------------------------------------------------------------------|
|-------------------------------------------------------------------|
|-------------------------------------------------------------------|
|
|  +W
|-------------------------------------------------------------------|
|-------------------------------------------------------------------|
|-------------------------------------------------------------------|
|-------------------------------------------------------------------|
|--(5)--------------------------------------------------------------|
|--(2)--------------------------------------------------------------|


  D5                                                    E5
   |------5-------|     |-----5-----|
   S     S  S  S  S     S  S  S  S  S  S  S  S  S  S  S  E
|-------14-------------14-------------------------------------|
|-17b19----17-14-17b19----17-14-17-14----14-------------------|
|-------------------------------------17----17-16-14-16-16b18-|
|-------------------------------------------------------------|
|-------------------------------------------------------------|
|-------------------------------------------------------------|
|
|  H..                                                   E
|-------------------------------------------------------------|
|-------------------------------------------------------------|
|-------------------------------------------------------------|
|--7-----------------------------------------------------9----|
|--5-----------------------------------------------------7----|
|-------------------------------------------------------------|


            |-----5-----|
   H.       S  S  S  S  S
|-------------------17-19-|
|----------17-19-21-------|
|-14----------------------|
|-------------------------|
|-------------------------|
|-------------------------|
|
| +W
|-------------------------|
|-------------------------|
|-------------------------|
|-(9)---------------------|
|-(7)---------------------|
|-------------------------|


  A5               D5
   H       E  E  E  E    +E   E  +E   +E      +H
|-21------21-19-17-19-|-(19)-------------------------|
|---------------------|------17-(17)-(17)b19-(17)----|
|---------------------|------------------------------|
|---------------------|------------------------------|
|---------------------|------------------------------|
|---------------------|------------------------------|
|
|  H..              E    +W
|---------------------|------------------------------|
|---------------------|------------------------------|
|---------------------|------------------------------|
|-------------------7-|--(7)-------------------------|
|--7----------------5-|--(5)-------------------------|
|--5------------------|------------------------------|


  B5          C#5                                   F5
   H..         E       +E       +E      +H        Q
|-22b24-------22b25-|-(22)pb25-(22)b25-(22)b25--------|
|-------------------|---------------------------------|
|-------------------|---------------------------------|
|-------------------|---------------------------------|
|-------------------|---------------------------------|
|-------------------|---------------------------------|
|
|  H..         E        H..                         E
|-------------------|---------------------------------|
|-------------------|---------------------------------|
|-------------------|---------------------------------|
|--4-----------6----|---------------------------------|
|--2-----------4----|-------------------------------3-|
|-------------------|-------------------------------1-|


 Chorus
      E5                     N.C.                    E5
  Gtrs I, II
      PM-------------------|                         PM--------------|
  +E  E S E S E E S E S    E E E E E   +E  E E   +E  E S E S E E S E S
|-----------------------||---------------------|------------------------|
|-----------------------||---------------------|------------------------|
|-----------------------||---------------------|------------------------|
|-----------------------||---------------------|------------------------|
|-(3)-2-2-2-2-2-2-2-2-2-||-2-------------------|-----2-2-2-2-2-2-2-2-2--|
|-(1)-0-0-0-0-0-0-0-0-0-||-0-0-1-4-4b5r(4)-1-0-|-(0)-0-0-0-0-0-0-0-0-0--|


  N.C.                           E5
                       PM----|      PM------------|
  S S S S S S S S S E. S S S S   Q  S E S E E S E S
|------------------------------|--------------------|
|------------------------------|--------------------|
|-2p1---1---1-2p1---1----------|--------------------|
|-----3---3-------3------------|--------------------|
|------------------------------|-2--2-2-2-2-2-2-2-2-|
|----------------------1-1-1-1-|-0--0-0-0-0-0-0-0-0-|


    N.C.
  PM
  E E E E E   +E  E  E    +H.       E E   +Q    E E +Q.   E
|----------------------|----------------|-------------------|
|----------------------|----------------|-------------------|
|-------------------10-|-(10)------12-9-|-(9)--12-8-(8)---9-|
|----------------------|----------------|-------------------|
|-2------------------8-|--(8)------10-7-|-(7)--10-6-(6)---7-|
|-0-0-1-4-4b5r(4)-1----|----------------|-------------------|


       E5                    N.C.            E5
       PM------------------|                 PM----------------------|
  +E   E S E S E E S E S   E E E E E   +E  E E   +E  E S E S E E S E S
|------------------------|---------------------|-----------------------|
|------------------------|---------------------|-----------------------|
|-(9)\-------------------|---------------------|-----------------------|
|------------------------|---------------------|-----------------------|
|-(7)\-2-2-2-2-2-2-2-2-2-|-2-----------------2-|-(2)-2-2-2-2-2-2-2-2-2-|
|------0-0-0-0-0-0-0-0-0-|-0-0-1-4-4b5r(4)-1-0-|-(0)-0-0-0-0-0-0-0-0-0-|


  N.C.                           E5
  Gtr I
                       PM----|      PM------------|
  S S S S S S S S S E. S S S S   Q  S E S E E S E S
|------------------------------|--------------------|
|-5p4---4---4-5p4---4----------|--------------------|
|-----5---5-------5------------|--------------------|
|------------------------------|--------------------|
|------------------------------|-2--2-2-2-2-2-2-2-2-|
|----------------------1-1-1-1-|-0--0-0-0-0-0-0-0-0-|
|
| Gtr II
|                      PM----|      PM------------|
| S S S S S S S S S E. S S S S   Q  S E S E E S E S
|------------------------------|--------------------|
|------------------------------|--------------------|
|-2p1---1---1-2p1---1----------|--------------------|
|-----3---3-------3------------|--------------------|
|------------------------------|-2--2-2-2-2-2-2-2-2-|
|----------------------1-1-1-1-|-0--0-0-0-0-0-0-0-0-|


    N.C.            (F)            (G)(E)
  PM
  E E E E E   +E  E  E    +H.       E  E
|----------------------|-----------------|
|----------------------|-----------------|
|-------------------14-|-(14)------16-13-|
|----------------------|-----------------|
|-2-----------------12-|-(12)------14-11-|
|-0-0-1-4-4b5r(4)-1----|-----------------|
|
| PM
| E E E E E   +E  E  E    +H.       E  E
|----------------------|-----------------|
|----------------------|-----------------|
|-------------------10-|-(10)------12--9-|
|----------------------|-----------------|
|-2------------------8-|--(8)------10--7-|
|-0-0-1-4-4b5r(4)-1----|-----------------|


 Outro
        (G)(D#)      (F)            (G)(E)        (G)(D#)      (F)
   +Q    E  E  +Q.    E    +H.       E  E    +Q    E  E  +Q.    E
|-----------------------|-----------------|-----------------------|
|-----------------------|-----------------|-----------------------|
|-(13)--16-12-(12)---14-|-(14)------16-13-|-(13)--16-12-(12)---14-|
|-----------------------|-----------------|-----------------------|
|-(11)--14-10-(10)---12-|-(12)------14-11-|-(11)--14-10-(10)---12-|
|-----------------------|-----------------|-----------------------|
|
|  +Q    E  E  +Q.    E    +H.       E  E    +Q    E  E  +Q.    E
|-----------------------|-----------------|-----------------------|
|-----------------------|-----------------|-----------------------|
|--(9)--12--8--(8)---10-|-(10)------12--9-|--(9)--12--8--(8)---10-|
|-----------------------|-----------------|-----------------------|
|--(7)--10--6--(6)----8-|--(8)------10--7-|--(7)--10--6--(6)----8-|
|-----------------------|-----------------|-----------------------|


            (G)(E)        (G)(D#)      N.C.
   +H.       E  E    +Q    E  E  +Q.   E   E E E E E   +E  E E
|-----------------|----------------------|---------------------*|
|-----------------|----------------------|---------------------*|
|-(14)------16-13-|-(13)--16-12-(12)-----|---------------------*|
|-----------------|----------------------|---------------------*|
|-(12)------14-11-|-(11)--14-10-(10)-----|---------------------*|
|-----------------|----------------------|---0-1-4-4b5r(4)-1-0-*|
|
|  +H.       E  E    +Q    E  E  +Q.   E   E E E E E   +E  E E
|-----------------|----------------------|---------------------*|
|-----------------|----------------------|---------------------*|
|-(10)------12--9-|--(9)--12--8--(8)-----|---------------------*|
|-----------------|----------------------|---------------------*|
|--(8)------10--7-|--(7)--10--6--(6)-----|---------------------*|
|-----------------|----------------------|---0-1-4-4b5r(4)-1-0-*|



Duration Legend
---------------
W - whole; H - half; Q - quarter; E - 8th; S - 16th; T - 32nd; X - 64th; a - acciaccatura
+ - note tied to previous; . - note dotted; .. - note double dotted
Uncapitalized letters represent notes that are staccato (1/2 duration)
Irregular groupings are notated above the duration line
Duration letters will always appear directly above the note/fret number it represents the
duration for.  Duration letters with no fret number below them represent rests.  Multi-
bar rests are notated in the form Wxn, where n is the number of bars to rest for.  Low
melody durations appear below the staff

Tablature Legend
----------------
 h   - hammer-on
 p   - pull-off
 b   - bend
 pb  - pre-bend
 r   - bend release (if no number after the r, then release immediately)
 /\  - slide into or out of (from/to "nowhere")
 s   - legato slide
 S   - shift slide
 - natural harmonic
[n]  - artificial harmonic
n(n) - tapped harmonic
 ~   - vibrato
 tr  - trill
 T   - tap
 TP  - trem. picking
 PM  - palm muting
\n/  - tremolo bar dip; n = amount to dip
 \n  - tremolo bar down
 n/  - tremolo bar up
/n\  - tremolo bar inverted dip
 =   - hold bend; also acts as connecting device for hammers/pulls
 <> - volume swell (louder/softer)
 x   - on rhythm slash represents muted slash
 o   - on rhythm slash represents single note slash

Misc Legend
-----------
 |  - bar
||  - double bar
||o - repeat start
o|| - repeat end
*|  - double bar (ending)
 :  - bar (freetime)
 $  - Segno
 &  - Coda
Tempo markers -  = BPM(8/16=s8/s16), where s8 = swing 8ths, s16 = swing 16ths

Related for Skeleton Dance tab
Advertisement will be closed in 10 seconds