Archie Star - Let Go tab

Capo the 4th fret, standard tuning.

There were no correct tabs for this song so I decided to post the way I play it which 
sounds pretty accurate to me, you be the judge though. It's a very simple song.

Intro & verse

E----------------2--|
B----4-----------2--|
G----4---0-0-0---3--|
D--4-4---1-2-1---4--|
A--2-2---2-2-2---4--|
E----------------2--|

Chorus

(starts on the line "You know exactly, what I'm doing here..")

E---------------2-2-2-2-2-2-|
B--4-4-4-4-4-4--2-2-2-2-2-2-|
G--4-4-4-4-4-4--3-3-3-3-3-3-|
D--4-4-4-4-4-4--4-4-4-4-4-4-|
A--2-2-2-2-2-2--4-4-4-4-4-4-|
E---------------2-2-2-2-2-2-|

That riff repeats 6 times before the little "breakdown" which is played the same chords 
but just picking a few strings after you strum, like this..

E------------2-2-2--|
B--44-4----4-2-2-2--|
G--44--4---4-3-3-3--|
D--44-----44-4-4-4--|
A--22------2-4-4-4--|
E------------2-2-2--|


Thats pretty much it, just learn these chords and listen to the song and work out the 
strumming to how it should be played.
Tap to rate this tab
 
# A B C D E F G H I J K L M N O P Q R S T U V W X Y Z