Arctic Monkeys - The Hellcat Spangled Shalalala tab

INTRO

e|------------------------------------------------|
B|----12----12----12----12----12----12----12------|
G|-13----13----13----13----13----13----13----13---|
D|------------------------------------------------|
A|------------------------------------------------|
E|------------------------------------------------|

e|------------------------------------| (x6)
B|-11-------9-----11------------------|
G|------11----11------11--------------|
D|------------------------------------|
A|------------------------------------|
E|------------------------------------|

e|--------------------------------------------------------------------|
B|-11-----9------11------9--------------7-------9-------7-----11~ ----|
G|-----11----11------11--------8----8-------8-------8---------11~ ----|
D|--------------------------------------------------------------------|
A|--------------------------------------------------------------------|
E|--------------------------------------------------------------------|


VERSE 1

e|------------------------------|
B|---16/12----------------12----|
G|------------------------------|
D|---------------------13-------|
A|------------------------------|
E|------------------------------|

CHORUS 1

e|-12-------------12-------------12-----------|
B|-15b17b15-------15b17b15-------15b17b15-----|
G|--------------------------------------------|
D|--------------------------------------------|
A|--------------------------------------------|
E|--------------------------------------------|

e|-----------------------------------------------------------|
B|----12----12----12----12----12----12----12----12-----11~ --|
G|-13----13----13----13----13----13----13----13----13--11~ --|
D|-----------------------------------------------------------|
A|-----------------------------------------------------------|
E|-----------------------------------------------------------|

VERSE 2

e|-11--------------------|   (x4)
B|----12-14-12-----------|
G|-------------15-13-----|
D|-----------------------|
A|-----------------------|
E|-----------------------|


CHORUS 2

e|-12-------------12-------------12-----------|
B|-15b17b15-------15b17b15-------15b17b15-----|
G|--------------------------------------------|
D|--------------------------------------------|
A|--------------------------------------------|
E|--------------------------------------------|


e|----------------------------------------------------|
B|----12----12----12----12----12----12----12----12----|
G|-13----13----13----13----13----13----13----13----13-|
D|----------------------------------------------------|
A|----------------------------------------------------|
E|----------------------------------------------------|

e|-------------------------------|
B|12----12----12----12-----11~ --|
G|---13----13----13----13--11~ --|
D|-------------------------------|
A|-------------------------------|
E|-------------------------------|

OUTRO


e|----14-----12-----11----9----7----9-----11-----12-----14-----12----9----7--|
B|-16-----14-----12-----9----7----9----12-----14-----16-----14-----9----7----|
G|---------------------------------------------------------------------------|
D|---------------------------------------------------------------------------|
A|---------------------------------------------------------------------------|
E|---------------------------------------------------------------------------|

e|--9-----11-----12-----14-----12-----11----9----7----|
B|9----12-----14-----16-----14-----12-----9----7------|
G|----------------------------------------------------|
D|----------------------------------------------------|
A|----------------------------------------------------|
E|----------------------------------------------------|

e|-11---11-11-11-11--12--14---14-14-14-14--12--11---11-11-11-11--12--14---|
B|-12---12-12-12-12--14--16---16-16-16-16--14--12---12-12-12-12--14--16---|
G|------------------------------------------------------------------------|
D|------------------------------------------------------------------------|
A|------------------------------------------------------------------------|
E|------------------------------------------------------------------------|

e|14-14-14-14--12--11-11-11-11-11-11-11-10-10-10-10-10-10-10-10-|
B|16-16-16-16--14--12-12-12-12-12-12-12-12-12-12-12-12-12-12-12-|
G|--------------------------------------------------------------|
D|--------------------------------------------------------------|
A|--------------------------------------------------------------|
E|--------------------------------------------------------------|

e|----14----12-----11----9-----11------14-----12-----11----9-----11---|
B|-16-----14----12-----9----12------16-----14------12-----9----12-----|
G|--------------------------------------------------------------------|
D|--------------------------------------------------------------------|
A|--------------------------------------------------------------------|
E|--------------------------------------------------------------------|

e|------------------------------------------|
B|---12----12----12----12----12----12----12-|
G|-13----13----13----13----13----13----13---|
D|------------------------------------------|
A|------------------------------------------|
E|------------------------------------------|

e|--11-----------11-----|  (x11)
B|-----12-14-12-----12--|  Until Finish
G|----------------------|
D|----------------------|
A|----------------------|
E|----------------------|
Tap to rate this tab
 
# A B C D E F G H I J K L M N O P Q R S T U V W X Y Z