Song name
# A B C D E F G H I J K L M N O P Q R S T U V W X Y Z

Arctic Monkeys - Leave Before The Lights Come On tab

Artist: Arctic Monkeys
Song: Leave Before The Lights Come On


Leave Before The Lights Come On (Single)
Arctic Monkeys


(intro) C Em Dm
.::INTRO::.
E|-----------------------------------------------------|
B|------------10-8---8-------8--------------8----------|
G|--9-9-9-9-9------9---9-------9-7-9-7--------9-7-9-7--|
D|-----------------------7-7------------7-7------------|
A|-----------------------------------------------------|
E|-----------------------------------------------------|


C                   Em                         Dm
Well this is a good idea he wouldn't do it if it wasn't
He wouldn't do it if it wasn't one. 
C                  Em                          Dm
Well my friend fancies you, oh what a way to begin it all
You said it's always exciting words to hear

       Em                                   Dm
And we woke up together not quite realising how 
                              Em                            Dm
Oh when your stretching and yawning, its always hard in the morning
Em                                 Dm
And I suppose that's the price you pay
                    Em                                      Dm
Oh it isn't what it was, she's thinking he looks different today
and oh there's nothing left to guess now.

(solo) C Em Dm
E|---------|
B|---------|
G|---------| x4
D|--5------|
A|3---3-3-3|
E|---------|

E|------------------------------------------------| |----------|
B|------------------------------------------------| |----------|
G|--------------------------4-----------4---------| |----------| x4
D|--2-5---2-----2-5-------2---5-------2---5-------| |----5-----|
A|3-----------3-----------------------------------| |5-7----7--|
E|------------------------------------------------| |----------|


C                           Em                                Dm
You left before the lights came on because you didn't want to ruin
All the lust that was brewing before he absolutely had to
C                    Em                         Dm
And how can you wake up with someone you don't love? 
And not feel slightly fazed by it oh, he had a struggle

        Em                                   Dm
And you woke up together not quite realising how 
                             Em                             Dm
Oh but he's stretching and yawning it's always hard in the morning


Em                                 Dm
And I suppose that's the price you pay
                    Em                                      Dm
Oh it isn't what it was, she's thinking he looks different today
and oh there's nothing left to guess now.


C                             Am   
Quick let's leave before the lights come on
             Dm                 Am
Cos then you don't have to see
             Dm                         F
Cos then you don't have to see what you've done   (x2)

(instrumental) Am    G     F      E

.::SOLO::.
How Many Times Each Note Is Played
E|------------------------------------------------------------|
B|------------------------------------------------------------|
G|----------------------------------------------------------9-|
D|------------------------------------------------------------|
A|--0--12--10--7--5--3--5--7--5--7--10--12--10--12--7--5--3---|
E|------------------------------------------------------------|

E|------------------------------------------------------------|
B|------------------10-8---8-------8--------------8-----------|
G|--9-9-9-9-9-9-9-9------9---9b-------9-7-9-7--------9-7-9-7--|
D|------------------------------7-7------------7-7------------|
A|------------------------------------------------------------|
E|------------------------------------------------------------|

E|-------------------------------------------------------------------------|
B|----------------------------------10-8---8---8-------8-------8-------8---|
G|--9-9-9-9-9-9-9-9-9-9-9-9-9-9-9-9------9-------9-7-9---9-9-----9-7-9---9-|
D|-------------------------------------------7---------------7-------------|
A|-------------------------------------------------------------------------|
E|-------------------------------------------------------------------------|

|-------------------------------|
|-------------------------------|
|--9-9-7-9--9-7-9--9-7-9-7------|
|-------------------------------|
|-------------------------------|
|-------------------------------|

I'll walk you up, what time's the bus come? 


End on Am
E|0---|
B|1---|
G|2---|
D|2---|
A|0---|
E|----|

END
Tap to rate this tab
# A B C D E F G H I J K L M N O P Q R S T U V W X Y Z