Song name
# A B C D E F G H I J K L M N O P Q R S T U V W X Y Z

Area 7 - Leave Me Alone tab

Help us improve GuitareTab! Take a short survey!
Artist: Area 7
Title: Leave Me Alone
Album: Say It To My Face

Standard Tuning

Intro:-

E|-------------------------------------------------------|
B|-------------------------------------------------------|
G|---8-8-8-8---10-10-10-10---12-12-12-12---10-10-10-10---|
D|-------------------------------------------------------|
A|-------------------------------------------------------|
E|-------------------------------------------------------|

E|------------------------------------------------------|
B|------------------------------------------------------|
G|---8-8-8-8---10-10-10-10---12-12-12-12---8---12---3---|
D|------------------------------------------------------|
A|------------------------------------------------------|
E|------------------------------------------------------|

Verse:-

E|-------------------------------------------------------|
B|-------------------------------------------------------|
G|---8-10---10-8---8-8-8-8-8-8-8-10---10-10-10-10-10-8---|
D|-------------------------------------------------------|
A|-------------------------------------------------------|
E|-------------------------------------------------------|

E|---------------------------|
B|---------------------------|
G|---3-7---3-5---3-7---3-5---|
D|---------------------------|
A|---------------------------|
E|---------------------------|

Chorus:-

E|---------------------|
B|---------------------|
G|---3-3-3-3-7-5-3-3---|
D|---------------------| x 2
A|---------------------|
E|---------------------|

E|-----------------------------------------------|
B|-----------------------------------------------|
G|---3-3-3-3---7-7-7-7---3-3-3-3---5-5-5-5---3---|
D|-----------------------------------------------|
A|-----------------------------------------------|
E|-----------------------------------------------|

Verse

Chorus

After Chorus 2:-

E|-------------------------|
B|-------------------------|
G|---3-3---3-3---3-3-3-3---|
D|-------------------------|
A|-------------------------|
E|-------------------------|

Intro

Verse

Chorus x 2

That's all of it.
Related for Leave Me Alone tab