Guitaretab - guitar tabs
Song name
# A B C D E F G H I J K L M N O P Q R S T U V W X Y Z
Home / A / Aria / Dreams tab

Aria - Dreams tab

 ||--------|-------------------|---------------------------------------------|
B||--------|-------------------|---------------------------------------------|
G||--------|-------------------|---------------------------------------------|
D||-----0--|--2----------2--0--|--0-------------------0-------------0-----2--|
A||--3-----|-------------------|-----3----------0--3------3------3-----3-----|
E||--------|-------------------|---------------------------------------------|

                                                                 
---------------------|------------------------------------------|
---------------------|------------------------------------------|
---------------------|----------------0-------------------------|
--2---------------0--|--2--2-------------2--0-------------------|
---------------3-----|-------------------------3----------0--3--|
---------------------|------------------------------------------|

                                                                    
----------------------|--------------------------------------------|
----------------------|--------------------------------------------|
----------------------|--------------------------------------------|
--0---------0---------|--0-------------------0------0--0-----------|
---------3---------3--|----3-0--0-------------------------3--0--3--|
----------------------|--------------------------------------------|

                                                              
-------------------|-----------------------------------------|
-------------------|-----------------------------------------|
-------------------|-----------------------------------------|
-------------------|--0------0--0----------------------------|
--3----------------|---------------3--0--3--3----------------|
-------------------|-----------------------------------------|
[ Tab from: http://www.guitaretab.com/a/aria/131292.html ]
                                                                   
-----------------------|------------------------------------------|
-----------------------|------------------------------------------|
-----------------------|------------------------------------2--1--|
--0------0--0----------|---------------------0------2--3----------|
-----------------3--0--|--3--3------------3-----------------------|
-----------------------|------------------------------------------|

                                                                      
--------------------|------------------------------------------------|
--------------------|------------------------------------------------|
--0--------0--------|--2------2--2----0---------0------0--0----------|
--------------------|--3------3--3----2----3----2------2--2--3----2--|
--------------------|----------------------5-----------------5-------|
--------------------|------------------------------------------------|

                                                              
------------------------|------------------------------------|
------------------------|------------------------------------|
------------------------|---------------2------2--2----0-----|
--0------0--0-----------|---------------3------3--3----2--3--|
--8------------3--0--3--|--3------------------------------5--|
------------------------|------------------------------------|

                                                                
----------------------|-----------------------|---------------||
----------------------|-----------------------|---------------||
--0------0------------|-----------------2--1--|--0------------||
--2------2--0----2----|--0------2--3----------|---------------||
------------8---------|-----------------------|---------------||
----------------------|-----------------------|---------------||
Related for Dreams tab